  0
SECTION
  2
HEADER
  9
$ACADVER
  1
AC1021
  9
$ACADMAINTVER
 70
    25
  9
$DWGCODEPAGE
  3
ANSI_1252
  9
$LASTSAVEDBY
  1
12464
  9
$INSBASE
 10
0.0
 20
0.0
 30
0.0
  9
$EXTMIN
 10
95.22630014199848
 20
109.3098465375199
 30
-78.84077455021315
  9
$EXTMAX
 10
304.894207418046
 20
273.1987453790269
 30
-75.840774550213
  9
$LIMMIN
 10
0.0
 20
0.0
  9
$LIMMAX
 10
12.0
 20
9.0
  9
$ORTHOMODE
 70
     0
  9
$REGENMODE
 70
     1
  9
$FILLMODE
 70
     1
  9
$QTEXTMODE
 70
     0
  9
$MIRRTEXT
 70
     1
  9
$LTSCALE
 40
1.0
  9
$ATTMODE
 70
     1
  9
$TEXTSIZE
 40
0.2
  9
$TRACEWID
 40
0.05
  9
$TEXTSTYLE
  7
Standard
  9
$CLAYER
  8
0
  9
$CELTYPE
  6
ByLayer
  9
$CECOLOR
 62
   256
  9
$CELTSCALE
 40
1.0
  9
$DISPSILH
 70
     0
  9
$DIMSCALE
 40
1.0
  9
$DIMASZ
 40
0.18
  9
$DIMEXO
 40
0.0625
  9
$DIMDLI
 40
0.38
  9
$DIMRND
 40
0.0
  9
$DIMDLE
 40
0.0
  9
$DIMEXE
 40
0.18
  9
$DIMTP
 40
0.0
  9
$DIMTM
 40
0.0
  9
$DIMTXT
 40
0.18
  9
$DIMCEN
 40
0.09
  9
$DIMTSZ
 40
0.0
  9
$DIMTOL
 70
     0
  9
$DIMLIM
 70
     0
  9
$DIMTIH
 70
     1
  9
$DIMTOH
 70
     1
  9
$DIMSE1
 70
     0
  9
$DIMSE2
 70
     0
  9
$DIMTAD
 70
     0
  9
$DIMZIN
 70
     0
  9
$DIMBLK
  1

  9
$DIMASO
 70
     1
  9
$DIMSHO
 70
     1
  9
$DIMPOST
  1

  9
$DIMAPOST
  1

  9
$DIMALT
 70
     0
  9
$DIMALTD
 70
     2
  9
$DIMALTF
 40
25.4
  9
$DIMLFAC
 40
1.0
  9
$DIMTOFL
 70
     0
  9
$DIMTVP
 40
0.0
  9
$DIMTIX
 70
     0
  9
$DIMSOXD
 70
     0
  9
$DIMSAH
 70
     0
  9
$DIMBLK1
  1

  9
$DIMBLK2
  1

  9
$DIMSTYLE
  2
STANDARD_ACAD
  9
$DIMCLRD
 70
     0
  9
$DIMCLRE
 70
     0
  9
$DIMCLRT
 70
     0
  9
$DIMTFAC
 40
1.0
  9
$DIMGAP
 40
0.09
  9
$DIMJUST
 70
     0
  9
$DIMSD1
 70
     0
  9
$DIMSD2
 70
     0
  9
$DIMTOLJ
 70
     1
  9
$DIMTZIN
 70
     0
  9
$DIMALTZ
 70
     0
  9
$DIMALTTZ
 70
     0
  9
$DIMUPT
 70
     0
  9
$DIMDEC
 70
     4
  9
$DIMTDEC
 70
     4
  9
$DIMALTU
 70
     2
  9
$DIMALTTD
 70
     2
  9
$DIMTXSTY
  7
Standard
  9
$DIMAUNIT
 70
     0
  9
$DIMADEC
 70
     0
  9
$DIMALTRND
 40
0.0
  9
$DIMAZIN
 70
     0
  9
$DIMDSEP
 70
    46
  9
$DIMATFIT
 70
     3
  9
$DIMFRAC
 70
     0
  9
$DIMLDRBLK
  1

  9
$DIMLUNIT
 70
     2
  9
$DIMLWD
 70
    -2
  9
$DIMLWE
 70
    -2
  9
$DIMTMOVE
 70
     2
  9
$DIMFXL
 40
1.0
  9
$DIMFXLON
 70
     0
  9
$DIMJOGANG
 40
0.7853981633974483
  9
$DIMTFILL
 70
     0
  9
$DIMTFILLCLR
 70
     0
  9
$DIMARCSYM
 70
     0
  9
$DIMLTYPE
  6

  9
$DIMLTEX1
  6

  9
$DIMLTEX2
  6

  9
$LUNITS
 70
     2
  9
$LUPREC
 70
     3
  9
$SKETCHINC
 40
0.1
  9
$FILLETRAD
 40
0.0
  9
$AUNITS
 70
     0
  9
$AUPREC
 70
     0
  9
$MENU
  1
.
  9
$ELEVATION
 40
0.0
  9
$PELEVATION
 40
0.0
  9
$THICKNESS
 40
0.0
  9
$LIMCHECK
 70
     0
  9
$CHAMFERA
 40
0.0
  9
$CHAMFERB
 40
0.0
  9
$CHAMFERC
 40
0.0
  9
$CHAMFERD
 40
0.0
  9
$SKPOLY
 70
     0
  9
$TDCREATE
 40
2460739.905640208
  9
$TDUCREATE
 40
2460739.572306875
  9
$TDUPDATE
 40
2460739.905671377
  9
$TDUUPDATE
 40
2460739.572338044
  9
$TDINDWG
 40
0.0000000116
  9
$TDUSRTIMER
 40
0.0000000116
  9
$USRTIMER
 70
     1
  9
$ANGBASE
 50
0.0
  9
$ANGDIR
 70
     0
  9
$PDMODE
 70
     0
  9
$PDSIZE
 40
0.0
  9
$PLINEWID
 40
0.0
  9
$SPLFRAME
 70
     0
  9
$SPLINETYPE
 70
     6
  9
$SPLINESEGS
 70
     8
  9
$HANDSEED
  5
285
  9
$SURFTAB1
 70
     6
  9
$SURFTAB2
 70
     6
  9
$SURFTYPE
 70
     6
  9
$SURFU
 70
     6
  9
$SURFV
 70
     6
  9
$UCSBASE
  2

  9
$UCSNAME
  2

  9
$UCSORG
 10
0.0
 20
0.0
 30
0.0
  9
$UCSXDIR
 10
1.0
 20
0.0
 30
0.0
  9
$UCSYDIR
 10
0.0
 20
1.0
 30
0.0
  9
$UCSORTHOREF
  2

  9
$UCSORTHOVIEW
 70
     0
  9
$UCSORGTOP
 10
0.0
 20
0.0
 30
0.0
  9
$UCSORGBOTTOM
 10
0.0
 20
0.0
 30
0.0
  9
$UCSORGLEFT
 10
0.0
 20
0.0
 30
0.0
  9
$UCSORGRIGHT
 10
0.0
 20
0.0
 30
0.0
  9
$UCSORGFRONT
 10
0.0
 20
0.0
 30
0.0
  9
$UCSORGBACK
 10
0.0
 20
0.0
 30
0.0
  9
$PUCSBASE
  2

  9
$PUCSNAME
  2

  9
$PUCSORG
 10
0.0
 20
0.0
 30
0.0
  9
$PUCSXDIR
 10
1.0
 20
0.0
 30
0.0
  9
$PUCSYDIR
 10
0.0
 20
1.0
 30
0.0
  9
$PUCSORTHOREF
  2

  9
$PUCSORTHOVIEW
 70
     0
  9
$PUCSORGTOP
 10
0.0
 20
0.0
 30
0.0
  9
$PUCSORGBOTTOM
 10
0.0
 20
0.0
 30
0.0
  9
$PUCSORGLEFT
 10
0.0
 20
0.0
 30
0.0
  9
$PUCSORGRIGHT
 10
0.0
 20
0.0
 30
0.0
  9
$PUCSORGFRONT
 10
0.0
 20
0.0
 30
0.0
  9
$PUCSORGBACK
 10
0.0
 20
0.0
 30
0.0
  9
$USERI1
 70
     0
  9
$USERI2
 70
     0
  9
$USERI3
 70
     0
  9
$USERI4
 70
     0
  9
$USERI5
 70
     0
  9
$USERR1
 40
0.0
  9
$USERR2
 40
0.0
  9
$USERR3
 40
0.0
  9
$USERR4
 40
0.0
  9
$USERR5
 40
0.0
  9
$WORLDVIEW
 70
     1
  9
$SHADEDGE
 70
     3
  9
$SHADEDIF
 70
    70
  9
$TILEMODE
 70
     1
  9
$MAXACTVP
 70
    64
  9
$PINSBASE
 10
0.0
 20
0.0
 30
0.0
  9
$PLIMCHECK
 70
     0
  9
$PEXTMIN
 10
1.000000000000000E+20
 20
1.000000000000000E+20
 30
1.000000000000000E+20
  9
$PEXTMAX
 10
-1.000000000000000E+20
 20
-1.000000000000000E+20
 30
-1.000000000000000E+20
  9
$PLIMMIN
 10
0.0
 20
0.0
  9
$PLIMMAX
 10
12.0
 20
9.0
  9
$UNITMODE
 70
     0
  9
$VISRETAIN
 70
     1
  9
$PLINEGEN
 70
     0
  9
$PSLTSCALE
 70
     1
  9
$TREEDEPTH
 70
  3020
  9
$CMLSTYLE
  2
Standard
  9
$CMLJUST
 70
     0
  9
$CMLSCALE
 40
1.0
  9
$PROXYGRAPHICS
 70
     1
  9
$MEASUREMENT
 70
     1
  9
$CELWEIGHT
370
    -1
  9
$ENDCAPS
280
     0
  9
$JOINSTYLE
280
     0
  9
$LWDISPLAY
290
     0
  9
$INSUNITS
 70
     4
  9
$HYPERLINKBASE
  1

  9
$STYLESHEET
  1

  9
$XEDIT
290
     1
  9
$CEPSNTYPE
380
     0
  9
$PSTYLEMODE
290
     1
  9
$FINGERPRINTGUID
  2
{531f2e25-398e-48be-964d-b967065cf555}
  9
$VERSIONGUID
  2
{FAEB1C32-E019-11D5-929B-00C0DF256EC4}
  9
$EXTNAMES
290
     1
  9
$PSVPSCALE
 40
0.0
  9
$OLESTARTUP
290
     0
  9
$SORTENTS
280
   127
  9
$INDEXCTL
280
     0
  9
$HIDETEXT
280
     1
  9
$XCLIPFRAME
290
     0
  9
$HALOGAP
280
     0
  9
$OBSCOLOR
 70
   257
  9
$OBSLTYPE
280
     0
  9
$INTERSECTIONDISPLAY
280
     0
  9
$INTERSECTIONCOLOR
 70
   257
  9
$DIMASSOC
280
     2
  9
$PROJECTNAME
  1

  9
$CAMERADISPLAY
290
     0
  9
$LENSLENGTH
 40
50.0
  9
$CAMERAHEIGHT
 40
0.0
  9
$STEPSPERSEC
 40
2.0
  9
$STEPSIZE
 40
6.0
  9
$3DDWFPREC
 40
2.0
  9
$PSOLWIDTH
 40
0.25
  9
$PSOLHEIGHT
 40
4.0
  9
$LOFTANG1
 40
1.570796326794897
  9
$LOFTANG2
 40
1.570796326794897
  9
$LOFTMAG1
 40
0.0
  9
$LOFTMAG2
 40
0.0
  9
$LOFTPARAM
 70
     7
  9
$LOFTNORMALS
280
     1
  9
$LATITUDE
 40
37.795
  9
$LONGITUDE
 40
-122.394
  9
$NORTHDIRECTION
 40
0.0
  9
$TIMEZONE
 70
 -8000
  9
$LIGHTGLYPHDISPLAY
280
     1
  9
$TILEMODELIGHTSYNCH
280
     1
  9
$CMATERIAL
347
44
  9
$SOLIDHIST
280
     0
  9
$SHOWHIST
280
     1
  9
$DWFFRAME
280
     2
  9
$DGNFRAME
280
     2
  9
$REALWORLDSCALE
290
     1
  9
$INTERFERECOLOR
 62
   256
  9
$CSHADOW
280
     0
  9
$SHADOWPLANELOCATION
 40
0.0
  0
ENDSEC
  0
SECTION
  2
CLASSES
  0
CLASS
  1
ACDBDICTIONARYWDFLT
  2
AcDbDictionaryWithDefault
  3
ObjectDBX Classes
 90
        0
 91
        3
280
     0
281
     0
  0
CLASS
  1
VISUALSTYLE
  2
AcDbVisualStyle
  3
ObjectDBX Classes
 90
     4095
 91
        3
280
     0
281
     0
  0
CLASS
  1
MATERIAL
  2
AcDbMaterial
  3
ObjectDBX Classes
 90
     1153
 91
        3
280
     0
281
     0
  0
CLASS
  1
SCALE
  2
AcDbScale
  3
ObjectDBX Classes
 90
     1153
 91
        3
280
     0
281
     0
  0
CLASS
  1
TABLESTYLE
  2
AcDbTableStyle
  3
ObjectDBX Classes
 90
     4095
 91
        3
280
     0
281
     0
  0
CLASS
  1
MLEADERSTYLE
  2
AcDbMLeaderStyle
  3
ACDB_MLEADERSTYLE_CLASS
 90
     4095
 91
        3
280
     0
281
     0
  0
CLASS
  1
SUN
  2
AcDbSun
  3
SCENEOE
 90
     1153
 91
        3
280
     0
281
     0
  0
CLASS
  1
DICTIONARYVAR
  2
AcDbDictionaryVar
  3
ObjectDBX Classes
 90
        0
 91
        3
280
     0
281
     0
  0
CLASS
  1
CELLSTYLEMAP
  2
AcDbCellStyleMap
  3
ObjectDBX Classes
 90
     1152
 91
        3
280
     0
281
     0
  0
ENDSEC
  0
SECTION
  2
TABLES
  0
TABLE
  2
VPORT
  5
8
330
0
100
AcDbSymbolTable
 70
     1
  0
VPORT
  5
29
330
8
100
AcDbSymbolTableRecord
100
AcDbViewportTableRecord
  2
*Active
 70
     0
 10
0.0
 20
0.0
 11
1.0
 21
1.0
 12
10.42990654205607
 22
4.5
 13
0.0
 23
0.0
 14
0.5
 24
0.5
 15
0.5
 25
0.5
 16
0.0
 26
0.0
 36
1.0
 17
0.0
 27
0.0
 37
0.0
 40
9.0
 41
1.972972972850329
 42
50.0
 43
0.0
 44
0.0
 50
0.0
 51
0.0
 71
     0
 72
   100
 73
     1
 74
     3
 75
     0
 76
     0
 77
     0
 78
     0
281
     0
 65
     1
110
0.0
120
0.0
130
0.0
111
1.0
121
0.0
131
0.0
112
0.0
122
1.0
132
0.0
 79
     0
146
0.0
348
2F
 60
     3
 61
     5
292
     1
282
     1
141
0.0
142
0.0
 63
   250
361
5D
  0
ENDTAB
  0
TABLE
  2
LTYPE
  5
5
330
0
100
AcDbSymbolTable
 70
     1
  0
LTYPE
  5
14
330
5
100
AcDbSymbolTableRecord
100
AcDbLinetypeTableRecord
  2
ByBlock
 70
     0
  3

 72
    65
 73
     0
 40
0.0
  0
LTYPE
  5
15
330
5
100
AcDbSymbolTableRecord
100
AcDbLinetypeTableRecord
  2
ByLayer
 70
     0
  3

 72
    65
 73
     0
 40
0.0
  0
LTYPE
  5
16
330
5
100
AcDbSymbolTableRecord
100
AcDbLinetypeTableRecord
  2
Continuous
 70
     0
  3
Solid line
 72
    65
 73
     0
 40
0.0
  0
ENDTAB
  0
TABLE
  2
LAYER
  5
2
330
0
100
AcDbSymbolTable
 70
     2
  0
LAYER
  5
10
330
2
100
AcDbSymbolTableRecord
100
AcDbLayerTableRecord
  2
0
 70
     0
 62
     7
  6
Continuous
370
    -3
390
F
347
46
  0
LAYER
  5
5F
330
2
100
AcDbSymbolTableRecord
100
AcDbLayerTableRecord
  2
bottom box
 70
     0
 62
    18
420
        0
  6
Continuous
370
    -3
390
F
347
46
  0
ENDTAB
  0
TABLE
  2
STYLE
  5
3
330
0
100
AcDbSymbolTable
 70
     1
  0
STYLE
  5
11
330
3
100
AcDbSymbolTableRecord
100
AcDbTextStyleTableRecord
  2
Standard
 70
     0
 40
0.0
 41
1.0
 50
0.0
 71
     0
 42
0.2
  3
txt
  4

  0
ENDTAB
  0
TABLE
  2
VIEW
  5
6
330
0
100
AcDbSymbolTable
 70
     0
  0
ENDTAB
  0
TABLE
  2
UCS
  5
7
330
0
100
AcDbSymbolTable
 70
     0
  0
ENDTAB
  0
TABLE
  2
APPID
  5
9
330
0
100
AcDbSymbolTable
 70
     3
  0
APPID
  5
12
330
9
100
AcDbSymbolTableRecord
100
AcDbRegAppTableRecord
  2
ACAD
 70
     0
  0
APPID
  5
5E
330
9
100
AcDbSymbolTableRecord
100
AcDbRegAppTableRecord
  2
Rhino
 70
     0
  0
APPID
  5
27D
330
9
100
AcDbSymbolTableRecord
100
AcDbRegAppTableRecord
  2
ACAD_MLEADERVER
 70
     0
  0
ENDTAB
  0
TABLE
  2
DIMSTYLE
  5
A
330
0
100
AcDbSymbolTable
 70
     1
100
AcDbDimStyleTable
  0
DIMSTYLE
105
27
330
A
100
AcDbSymbolTableRecord
100
AcDbDimStyleTableRecord
  2
STANDARD_ACAD
 70
     0
178
     0
340
11
  0
ENDTAB
  0
TABLE
  2
BLOCK_RECORD
  5
1
330
0
100
AcDbSymbolTable
 70
     1
  0
BLOCK_RECORD
  5
1F
330
1
100
AcDbSymbolTableRecord
100
AcDbBlockTableRecord
  2
*Model_Space
340
22
 70
     0
280
     1
281
     0
  0
BLOCK_RECORD
  5
1B
330
1
100
AcDbSymbolTableRecord
100
AcDbBlockTableRecord
  2
*Paper_Space
340
1E
 70
     0
280
     1
281
     0
  0
BLOCK_RECORD
  5
23
330
1
100
AcDbSymbolTableRecord
100
AcDbBlockTableRecord
  2
*Paper_Space0
340
26
 70
     0
280
     1
281
     0
  0
ENDTAB
  0
ENDSEC
  0
SECTION
  2
BLOCKS
  0
BLOCK
  5
20
330
1F
100
AcDbEntity
  8
0
100
AcDbBlockBegin
  2
*Model_Space
 70
     0
 10
0.0
 20
0.0
 30
0.0
  3
*Model_Space
  1

  0
ENDBLK
  5
21
330
1F
100
AcDbEntity
  8
0
100
AcDbBlockEnd
  0
BLOCK
  5
1C
330
1B
100
AcDbEntity
 67
     1
  8
0
100
AcDbBlockBegin
  2
*Paper_Space
 70
     0
 10
0.0
 20
0.0
 30
0.0
  3
*Paper_Space
  1

  0
ENDBLK
  5
1D
330
1B
100
AcDbEntity
 67
     1
  8
0
100
AcDbBlockEnd
  0
BLOCK
  5
24
330
23
100
AcDbEntity
  8
0
100
AcDbBlockBegin
  2
*Paper_Space0
 70
     0
 10
0.0
 20
0.0
 30
0.0
  3
*Paper_Space0
  1

  0
ENDBLK
  5
25
330
23
100
AcDbEntity
  8
0
100
AcDbBlockEnd
  0
ENDSEC
  0
SECTION
  2
ENTITIES
  0
SPLINE
  5
60
330
1F
100
AcDbEntity
  8
bottom box
100
AcDbSpline
210
0.0
220
0.0
230
1.0
 70
    24
 71
     1
 72
     4
 73
     2
 74
     0
 42
0.0000000001
 43
0.0000000001
 40
7.004029295482523
 40
7.004029295482523
 40
8.504029295482521
 40
8.504029295482521
 10
258.8181747787849
 20
238.437420108855
 30
-78.26501363896669
 10
261.1969901379813
 20
240.8162354680513
 30
-78.26501363896666
  0
LINE
  5
61
330
1F
100
AcDbEntity
  8
bottom box
100
AcDbLine
 10
255.4676524508312
 20
241.7879424368088
 30
-78.26501363896666
 11
253.0888370916348
 21
244.1667577960052
 31
-78.26501363896666
  0
SPLINE
  5
62
330
1F
100
AcDbEntity
  8
bottom box
100
AcDbSpline
210
0.0
220
0.0
230
1.0
 70
    24
 71
     1
 72
     4
 73
     2
 74
     0
 42
0.0000000001
 43
0.0000000001
 40
0.0
 40
0.0
 40
1.452868850361469
 40
1.452868850361469
 10
261.1969901379813
 20
240.8162354680513
 30
-78.26501363896666
 10
261.1969901379813
 20
240.8162354680513
 30
-75.84077455021311
  0
LINE
  5
63
330
1F
100
AcDbEntity
  8
bottom box
100
AcDbLine
 10
243.3068146912653
 20
243.9154061365363
 30
-75.84077455021311
 11
253.0888370916348
 21
253.6974285369058
 31
-75.84077455021311
  0
SPLINE
  5
64
330
1F
100
AcDbEntity
  8
bottom box
100
AcDbSpline
210
0.0
220
0.0
230
1.0
 70
    12
 71
     2
 72
     8
 73
     5
 74
     0
 42
0.0000000001
 43
0.0000000001
 40
-17.39516517817905
 40
-17.39516517817905
 40
-17.39516517817905
 40
-11.71238899122066
 40
-11.71238899122066
 40
-6.029612804262264
 40
-6.029612804262264
 40
-6.029612804262264
 10
253.0888370916348
 20
253.6974285369058
 30
-75.84077455021311
 41
1.0
 10
255.4676524508311
 20
256.0762438961021
 30
-75.8407745502131
 41
0.7071067811865477
 10
257.8464678100275
 20
253.6974285369058
 30
-75.8407745502131
 41
1.0
 10
260.2252831692238
 20
251.3186131777094
 30
-75.8407745502131
 41
0.7071067811865477
 10
257.8464678100275
 20
248.9397978185131
 30
-75.84077455021311
 41
1.0
  0
LINE
  5
65
330
1F
100
AcDbEntity
  8
bottom box
100
AcDbLine
 10
257.8464678100275
 20
248.9397978185131
 30
-75.84077455021311
 11
255.4821200585656
 21
246.531105547467
 31
-75.84077455021311
  0
LINE
  5
66
330
1F
100
AcDbEntity
  8
bottom box
100
AcDbLine
 10
255.4821200585656
 20
246.531105547467
 30
-75.84077455021311
 11
251.3087823656967
 21
250.7044432403359
 31
-75.84077455021311
  0
LINE
  5
67
330
1F
100
AcDbEntity
  8
bottom box
100
AcDbLine
 10
251.3087823656967
 20
250.7044432403359
 30
-75.84077455021311
 11
248.9299670065004
 21
248.3256278811396
 31
-75.8407745502131
  0
LINE
  5
68
330
1F
100
AcDbEntity
  8
bottom box
100
AcDbLine
 10
257.7944186383858
 20
244.2188069676468
 30
-75.84077455021311
 11
260.2252831692238
 21
246.5609824593167
 31
-75.84077455021311
  0
SPLINE
  5
69
330
1F
100
AcDbEntity
  8
bottom box
100
AcDbSpline
210
0.0
220
0.0
230
1.0
 70
    12
 71
     2
 72
     8
 73
     5
 74
     0
 42
0.0000000001
 43
0.0000000001
 40
12.71129495482915
 40
12.71129495482915
 40
12.71129495482915
 40
17.42368393521384
 40
17.42368393521384
 40
22.13607291559853
 40
22.13607291559853
 40
22.13607291559853
 10
260.2252831692238
 20
246.5609824593167
 30
-75.84077455021311
 41
1.0
 10
264.9829138876166
 20
251.3186131777094
 30
-75.84077455021308
 41
0.7071067811865474
 10
260.2252831692238
 20
256.0762438961021
 30
-75.8407745502131
 41
1.0
 10
255.4676524508312
 20
260.8338746144948
 30
-75.84077455021308
 41
0.7071067811865474
 10
250.7100217324384
 20
256.0762438961021
 30
-75.84077455021311
 41
1.0
  0
LINE
  5
6A
330
1F
100
AcDbEntity
  8
bottom box
100
AcDbLine
 10
250.7100217324384
 20
256.0762438961021
 30
-75.84077455021311
 11
238.7719964708489
 21
244.1382186345126
 31
-75.84077455021311
  0
SPLINE
  5
6B
330
1F
100
AcDbEntity
  8
bottom box
100
AcDbSpline
210
0.0
220
0.0
230
1.0
 70
    12
 71
     2
 72
     6
 73
     3
 74
     0
 42
0.0000000001
 43
0.0000000001
 40
26.01511073747396
 40
26.01511073747396
 40
26.01511073747396
 40
27.66849562267522
 40
27.66849562267522
 40
27.66849562267522
 10
238.7719964708489
 20
244.1382186345126
 30
-75.84077455021311
 41
1.0
 10
241.073062696793
 20
244.7118228901952
 30
-75.84077455021311
 41
0.9572681607851067
 10
243.3068146912653
 20
243.9154061365363
 30
-75.84077455021311
 41
1.0
  0
LINE
  5
6C
330
1F
100
AcDbEntity
  8
bottom box
100
AcDbLine
 10
257.7944186383858
 20
244.2188069676468
 30
-75.84077455021311
 11
261.1969901379813
 21
240.8162354680513
 31
-75.84077455021311
  0
LINE
  5
6D
330
1F
100
AcDbEntity
  8
bottom box
100
AcDbLine
 10
258.8181747787849
 20
238.437420108855
 30
-75.8407745502131
 11
255.4676524508312
 21
241.7879424368088
 31
-75.84077455021311
  0
LINE
  5
6E
330
1F
100
AcDbEntity
  8
bottom box
100
AcDbLine
 10
253.0888370916348
 20
244.1667577960051
 30
-75.84077455021311
 11
248.9299670065004
 21
248.3256278811396
 31
-75.8407745502131
  0
LINE
  5
6F
330
1F
100
AcDbEntity
  8
bottom box
100
AcDbLine
 10
253.0888370916348
 20
244.1667577960051
 30
-75.84077455021311
 11
255.4676524508312
 21
241.7879424368088
 31
-75.84077455021311
  0
LINE
  5
70
330
1F
100
AcDbEntity
  8
bottom box
100
AcDbLine
 10
258.8181747787849
 20
238.437420108855
 30
-75.8407745502131
 11
261.1969901379813
 21
240.8162354680513
 31
-75.84077455021311
  0
LINE
  5
71
330
1F
100
AcDbEntity
  8
bottom box
100
AcDbLine
 10
243.3068146912653
 20
243.9154061365363
 30
-78.84077455021311
 11
253.0888370916348
 21
253.6974285369058
 31
-78.84077455021311
  0
SPLINE
  5
72
330
1F
100
AcDbEntity
  8
bottom box
100
AcDbSpline
210
0.0
220
0.0
230
1.0
 70
    12
 71
     2
 72
     8
 73
     5
 74
     0
 42
0.0000000001
 43
0.0000000001
 40
-17.39516517817905
 40
-17.39516517817905
 40
-17.39516517817905
 40
-11.71238899122066
 40
-11.71238899122066
 40
-6.029612804262264
 40
-6.029612804262264
 40
-6.029612804262264
 10
253.0888370916348
 20
253.6974285369058
 30
-78.84077455021311
 41
1.0
 10
255.4676524508312
 20
256.0762438961021
 30
-78.8407745502131
 41
0.7071067811865471
 10
257.8464678100275
 20
253.6974285369058
 30
-78.8407745502131
 41
1.0
 10
260.2252831692239
 20
251.3186131777094
 30
-78.8407745502131
 41
0.7071067811865471
 10
257.8464678100275
 20
248.9397978185131
 30
-78.84077455021311
 41
1.0
  0
LINE
  5
73
330
1F
100
AcDbEntity
  8
bottom box
100
AcDbLine
 10
257.8464678100275
 20
248.9397978185131
 30
-78.84077455021311
 11
255.4821200585656
 21
246.531105547467
 31
-78.84077455021311
  0
LINE
  5
74
330
1F
100
AcDbEntity
  8
bottom box
100
AcDbLine
 10
255.4821200585656
 20
246.531105547467
 30
-78.84077455021311
 11
251.3087823656967
 21
250.7044432403359
 31
-78.84077455021311
  0
LINE
  5
75
330
1F
100
AcDbEntity
  8
bottom box
100
AcDbLine
 10
251.3087823656967
 20
250.7044432403359
 30
-78.84077455021311
 11
248.9299670065004
 21
248.3256278811396
 31
-78.84077455021311
  0
LINE
  5
76
330
1F
100
AcDbEntity
  8
bottom box
100
AcDbLine
 10
257.7944186383858
 20
244.2188069676468
 30
-78.84077455021311
 11
260.2252831692238
 21
246.5609824593167
 31
-78.84077455021311
  0
SPLINE
  5
77
330
1F
100
AcDbEntity
  8
bottom box
100
AcDbSpline
210
0.0
220
0.0
230
1.0
 70
    12
 71
     2
 72
     8
 73
     5
 74
     0
 42
0.0000000001
 43
0.0000000001
 40
12.71129495482915
 40
12.71129495482915
 40
12.71129495482915
 40
17.42368393521384
 40
17.42368393521384
 40
22.13607291559853
 40
22.13607291559853
 40
22.13607291559853
 10
260.2252831692238
 20
246.5609824593167
 30
-78.84077455021311
 41
1.0
 10
264.9829138876166
 20
251.3186131777094
 30
-78.84077455021308
 41
0.7071067811865472
 10
260.2252831692238
 20
256.0762438961021
 30
-78.84077455021308
 41
1.0
 10
255.4676524508312
 20
260.8338746144948
 30
-78.84077455021308
 41
0.7071067811865472
 10
250.7100217324384
 20
256.0762438961021
 30
-78.84077455021311
 41
1.0
  0
LINE
  5
78
330
1F
100
AcDbEntity
  8
bottom box
100
AcDbLine
 10
250.7100217324384
 20
256.0762438961021
 30
-78.84077455021311
 11
238.7719964708489
 21
244.1382186345126
 31
-78.84077455021311
  0
SPLINE
  5
79
330
1F
100
AcDbEntity
  8
bottom box
100
AcDbSpline
210
0.0
220
0.0
230
1.0
 70
    12
 71
     2
 72
     6
 73
     3
 74
     0
 42
0.0000000001
 43
0.0000000001
 40
26.01511073747396
 40
26.01511073747396
 40
26.01511073747396
 40
27.66849562267522
 40
27.66849562267522
 40
27.66849562267522
 10
238.7719964708489
 20
244.1382186345126
 30
-78.84077455021311
 41
1.0
 10
241.073062696793
 20
244.7118228901952
 30
-78.8407745502131
 41
0.9572681607851058
 10
243.3068146912653
 20
243.9154061365363
 30
-78.84077455021311
 41
1.0
  0
LINE
  5
7A
330
1F
100
AcDbEntity
  8
bottom box
100
AcDbLine
 10
258.8181747787849
 20
238.437420108855
 30
-78.84077455021311
 11
261.1969901379813
 21
240.8162354680513
 31
-78.84077455021311
  0
LINE
  5
7B
330
1F
100
AcDbEntity
  8
bottom box
100
AcDbLine
 10
257.7944186383858
 20
244.2188069676468
 30
-78.84077455021311
 11
261.1969901379813
 21
240.8162354680513
 31
-78.84077455021311
  0
LINE
  5
7C
330
1F
100
AcDbEntity
  8
bottom box
100
AcDbLine
 10
258.8181747787849
 20
238.437420108855
 30
-78.84077455021311
 11
248.9299670065004
 21
248.3256278811396
 31
-78.84077455021311
  0
LINE
  5
7D
330
1F
100
AcDbEntity
  8
bottom box
100
AcDbLine
 10
253.0888370916348
 20
244.1667577960051
 30
-75.84077455021311
 11
253.0888370916348
 21
244.1667577960052
 31
-78.26501363896666
  0
LINE
  5
7E
330
1F
100
AcDbEntity
  8
bottom box
100
AcDbLine
 10
255.4676524508312
 20
241.7879424368088
 30
-75.84077455021311
 11
255.4676524508312
 21
241.7879424368088
 31
-78.26501363896666
  0
SPLINE
  5
7F
330
1F
100
AcDbEntity
  8
bottom box
100
AcDbSpline
210
0.0
220
0.0
230
1.0
 70
    24
 71
     1
 72
     4
 73
     2
 74
     0
 42
0.0000000001
 43
0.0000000001
 40
1.557492215872949
 40
1.557492215872949
 40
6.229977367412918
 40
6.229977367412918
 10
253.0888370916348
 20
253.6974285369058
 30
-78.84077455021311
 10
253.0888370916348
 20
253.6974285369058
 30
-75.84077455021311
  0
SPLINE
  5
80
330
1F
100
AcDbEntity
  8
bottom box
100
AcDbSpline
210
0.0
220
0.0
230
1.0
 70
    24
 71
     1
 72
     4
 73
     2
 74
     0
 42
0.0000000001
 43
0.0000000001
 40
1.557492215873043
 40
1.557492215873043
 40
6.229977367413005
 40
6.229977367413005
 10
243.3068146912653
 20
243.9154061365363
 30
-78.84077455021311
 10
243.3068146912653
 20
243.9154061365363
 30
-75.84077455021311
  0
SPLINE
  5
81
330
1F
100
AcDbEntity
  8
bottom box
100
AcDbSpline
210
0.0
220
0.0
230
1.0
 70
    28
 71
     1
 72
     4
 73
     2
 74
     0
 42
0.0000000001
 43
0.0000000001
 40
1.557492215872967
 40
1.557492215872967
 40
6.229977367412939
 40
6.229977367412939
 10
257.8464678100275
 20
248.9397978185131
 30
-78.84077455021311
 41
1.0
 10
257.8464678100275
 20
248.9397978185131
 30
-75.84077455021311
 41
1.0
  0
SPLINE
  5
82
330
1F
100
AcDbEntity
  8
bottom box
100
AcDbSpline
210
0.0
220
0.0
230
1.0
 70
    24
 71
     1
 72
     4
 73
     2
 74
     0
 42
0.0000000001
 43
0.0000000001
 40
1.557492215872967
 40
1.557492215872967
 40
6.229977367412944
 40
6.229977367412944
 10
255.4821200585656
 20
246.531105547467
 30
-78.84077455021311
 10
255.4821200585656
 20
246.531105547467
 30
-75.84077455021311
  0
SPLINE
  5
83
330
1F
100
AcDbEntity
  8
bottom box
100
AcDbSpline
210
0.0
220
0.0
230
1.0
 70
    24
 71
     1
 72
     4
 73
     2
 74
     0
 42
0.0000000001
 43
0.0000000001
 40
1.557492215872967
 40
1.557492215872967
 40
6.229977367412944
 40
6.229977367412944
 10
251.3087823656967
 20
250.7044432403359
 30
-78.84077455021311
 10
251.3087823656967
 20
250.7044432403359
 30
-75.84077455021311
  0
LINE
  5
84
330
1F
100
AcDbEntity
  8
bottom box
100
AcDbLine
 10
248.9299670065004
 20
248.3256278811396
 30
-78.84077455021311
 11
248.9299670065004
 21
248.3256278811396
 31
-75.8407745502131
  0
LINE
  5
85
330
1F
100
AcDbEntity
  8
bottom box
100
AcDbLine
 10
258.8181747787849
 20
238.437420108855
 30
-78.84077455021311
 11
258.8181747787849
 21
238.437420108855
 31
-78.26501363896669
  0
LINE
  5
86
330
1F
100
AcDbEntity
  8
bottom box
100
AcDbLine
 10
261.1969901379813
 20
240.8162354680513
 30
-78.84077455021311
 11
261.1969901379813
 21
240.8162354680513
 31
-78.26501363896666
  0
LINE
  5
87
330
1F
100
AcDbEntity
  8
bottom box
100
AcDbLine
 10
257.7944186383858
 20
244.2188069676468
 30
-78.84077455021311
 11
257.7944186383858
 21
244.2188069676468
 31
-75.84077455021311
  0
SPLINE
  5
88
330
1F
100
AcDbEntity
  8
bottom box
100
AcDbSpline
210
0.0
220
0.0
230
1.0
 70
    24
 71
     1
 72
     4
 73
     2
 74
     0
 42
0.0000000001
 43
0.0000000001
 40
1.557492215872967
 40
1.557492215872967
 40
6.229977367412944
 40
6.229977367412944
 10
260.2252831692238
 20
246.5609824593167
 30
-78.84077455021311
 10
260.2252831692238
 20
246.5609824593167
 30
-75.84077455021311
  0
SPLINE
  5
89
330
1F
100
AcDbEntity
  8
bottom box
100
AcDbSpline
210
0.0
220
0.0
230
1.0
 70
    28
 71
     1
 72
     4
 73
     2
 74
     0
 42
0.0000000001
 43
0.0000000001
 40
1.557492215872917
 40
1.557492215872917
 40
6.229977367412896
 40
6.229977367412896
 10
250.7100217324384
 20
256.0762438961021
 30
-78.84077455021311
 41
1.0
 10
250.7100217324384
 20
256.0762438961021
 30
-75.84077455021311
 41
1.0
  0
SPLINE
  5
8A
330
1F
100
AcDbEntity
  8
bottom box
100
AcDbSpline
210
0.0
220
0.0
230
1.0
 70
    24
 71
     1
 72
     4
 73
     2
 74
     0
 42
0.0000000001
 43
0.0000000001
 40
1.557492215873043
 40
1.557492215873043
 40
6.229977367413005
 40
6.229977367413005
 10
238.7719964708489
 20
244.1382186345126
 30
-78.84077455021311
 10
238.7719964708489
 20
244.1382186345126
 30
-75.84077455021311
  0
SPLINE
  5
8B
330
1F
100
AcDbEntity
  8
bottom box
100
AcDbSpline
210
0.0
220
0.0
230
1.0
 70
    24
 71
     1
 72
     4
 73
     2
 74
     0
 42
0.0000000001
 43
0.0000000001
 40
-1.452868850361487
 40
-1.452868850361487
 40
0.0
 40
0.0
 10
258.8181747787849
 20
238.437420108855
 30
-75.8407745502131
 10
258.8181747787849
 20
238.437420108855
 30
-78.26501363896669
  0
LINE
  5
8C
330
1F
100
AcDbEntity
  8
bottom box
100
AcDbLine
 10
250.2013176793276
 20
236.5216076653052
 30
-78.26501363896669
 11
247.8225023201312
 21
234.1427923061088
 31
-78.26501363896669
  0
SPLINE
  5
8D
330
1F
100
AcDbEntity
  8
bottom box
100
AcDbSpline
210
0.0
220
0.0
230
1.0
 70
    24
 71
     1
 72
     4
 73
     2
 74
     0
 42
0.0000000001
 43
0.0000000001
 40
7.004029295482523
 40
7.004029295482523
 40
8.504029295482521
 40
8.504029295482521
 10
253.5518400072813
 20
239.872129993259
 30
-78.26501363896669
 10
251.173024648085
 20
242.2509453524553
 30
-78.26501363896666
  0
SPLINE
  5
8E
330
1F
100
AcDbEntity
  8
bottom box
100
AcDbSpline
210
0.0
220
0.0
230
1.0
 70
    24
 71
     1
 72
     4
 73
     2
 74
     0
 42
0.0000000001
 43
0.0000000001
 40
0.0
 40
0.0
 40
1.452868850361465
 40
1.452868850361465
 10
251.173024648085
 20
242.2509453524553
 30
-78.26501363896666
 10
251.173024648085
 20
242.2509453524553
 30
-75.84077455021311
  0
LINE
  5
8F
330
1F
100
AcDbEntity
  8
bottom box
100
AcDbLine
 10
248.0738539796001
 20
224.3607699057394
 30
-75.8407745502131
 11
238.2918315792306
 21
234.1427923061089
 31
-75.84077455021311
  0
SPLINE
  5
90
330
1F
100
AcDbEntity
  8
bottom box
100
AcDbSpline
210
0.0
220
0.0
230
1.0
 70
    12
 71
     2
 72
     8
 73
     5
 74
     0
 42
0.0000000001
 43
0.0000000001
 40
-17.39516517817905
 40
-17.39516517817905
 40
-17.39516517817905
 40
-11.71238899122066
 40
-11.71238899122066
 40
-6.029612804262264
 40
-6.029612804262264
 40
-6.029612804262264
 10
238.2918315792306
 20
234.1427923061089
 30
-75.84077455021311
 41
1.0
 10
235.9130162200343
 20
236.5216076653052
 30
-75.84077455021306
 41
0.7071067811865483
 10
238.2918315792306
 20
238.9004230245016
 30
-75.84077455021307
 41
1.0
 10
240.670646938427
 20
241.2792383836979
 30
-75.84077455021306
 41
0.7071067811865483
 10
243.0494622976233
 20
238.9004230245016
 30
-75.84077455021311
 41
1.0
  0
LINE
  5
91
330
1F
100
AcDbEntity
  8
bottom box
100
AcDbLine
 10
243.0494622976233
 20
238.9004230245016
 30
-75.84077455021311
 11
245.4581545686693
 21
236.5360752730396
 31
-75.84077455021311
  0
LINE
  5
92
330
1F
100
AcDbEntity
  8
bottom box
100
AcDbLine
 10
245.4581545686693
 20
236.5360752730396
 30
-75.84077455021311
 11
241.2848168758003
 21
232.3627375801707
 31
-75.8407745502131
  0
LINE
  5
93
330
1F
100
AcDbEntity
  8
bottom box
100
AcDbLine
 10
241.2848168758003
 20
232.3627375801707
 30
-75.8407745502131
 11
243.6636322349967
 21
229.9839222209744
 31
-75.8407745502131
  0
LINE
  5
94
330
1F
100
AcDbEntity
  8
bottom box
100
AcDbLine
 10
247.7704531484895
 20
238.8483738528598
 30
-75.8407745502131
 11
245.4282776568196
 21
241.2792383836979
 31
-75.84077455021311
  0
SPLINE
  5
95
330
1F
100
AcDbEntity
  8
bottom box
100
AcDbSpline
210
0.0
220
0.0
230
1.0
 70
    12
 71
     2
 72
     8
 73
     5
 74
     0
 42
0.0000000001
 43
0.0000000001
 40
12.71129495482915
 40
12.71129495482915
 40
12.71129495482915
 40
17.42368393521384
 40
17.42368393521384
 40
22.13607291559853
 40
22.13607291559853
 40
22.13607291559853
 10
245.4282776568196
 20
241.2792383836979
 30
-75.84077455021311
 41
1.0
 10
240.6706469384269
 20
246.0368691020906
 30
-75.84077455021308
 41
0.7071067811865468
 10
235.9130162200342
 20
241.2792383836979
 30
-75.84077455021307
 41
1.0
 10
231.1553855016415
 20
236.5216076653052
 30
-75.84077455021307
 41
0.7071067811865468
 10
235.9130162200342
 20
231.7639769469125
 30
-75.8407745502131
 41
1.0
  0
LINE
  5
96
330
1F
100
AcDbEntity
  8
bottom box
100
AcDbLine
 10
235.9130162200342
 20
231.7639769469125
 30
-75.8407745502131
 11
247.8510414816238
 21
219.825951685323
 31
-75.8407745502131
  0
SPLINE
  5
97
330
1F
100
AcDbEntity
  8
bottom box
100
AcDbSpline
210
0.0
220
0.0
230
1.0
 70
    12
 71
     2
 72
     6
 73
     3
 74
     0
 42
0.0000000001
 43
0.0000000001
 40
26.01511073747396
 40
26.01511073747396
 40
26.01511073747396
 40
27.66849562267522
 40
27.66849562267522
 40
27.66849562267522
 10
247.8510414816238
 20
219.825951685323
 30
-75.8407745502131
 41
1.0
 10
247.2774372259411
 20
222.1270179112671
 30
-75.8407745502131
 41
0.9572681607851008
 10
248.0738539796001
 20
224.3607699057394
 30
-75.8407745502131
 41
1.0
  0
LINE
  5
98
330
1F
100
AcDbEntity
  8
bottom box
100
AcDbLine
 10
247.7704531484895
 20
238.8483738528598
 30
-75.8407745502131
 11
251.173024648085
 21
242.2509453524553
 31
-75.84077455021311
  0
LINE
  5
99
330
1F
100
AcDbEntity
  8
bottom box
100
AcDbLine
 10
253.5518400072813
 20
239.872129993259
 30
-75.84077455021311
 11
251.173024648085
 21
242.2509453524553
 31
-75.84077455021311
  0
LINE
  5
9A
330
1F
100
AcDbEntity
  8
bottom box
100
AcDbLine
 10
253.5518400072813
 20
239.872129993259
 30
-75.84077455021311
 11
250.2013176793276
 21
236.5216076653052
 31
-75.84077455021311
  0
LINE
  5
9B
330
1F
100
AcDbEntity
  8
bottom box
100
AcDbLine
 10
247.8225023201312
 20
234.1427923061088
 30
-75.84077455021311
 11
243.6636322349967
 21
229.9839222209744
 31
-75.8407745502131
  0
LINE
  5
9C
330
1F
100
AcDbEntity
  8
bottom box
100
AcDbLine
 10
247.8225023201312
 20
234.1427923061088
 30
-75.84077455021311
 11
250.2013176793276
 21
236.5216076653052
 31
-75.84077455021311
  0
LINE
  5
9D
330
1F
100
AcDbEntity
  8
bottom box
100
AcDbLine
 10
248.0738539796001
 20
224.3607699057394
 30
-78.8407745502131
 11
238.2918315792306
 21
234.1427923061089
 31
-78.84077455021311
  0
SPLINE
  5
9E
330
1F
100
AcDbEntity
  8
bottom box
100
AcDbSpline
210
0.0
220
0.0
230
1.0
 70
    12
 71
     2
 72
     8
 73
     5
 74
     0
 42
0.0000000001
 43
0.0000000001
 40
-17.39516517817905
 40
-17.39516517817905
 40
-17.39516517817905
 40
-11.71238899122066
 40
-11.71238899122066
 40
-6.029612804262264
 40
-6.029612804262264
 40
-6.029612804262264
 10
238.2918315792306
 20
234.1427923061089
 30
-78.84077455021311
 41
1.0
 10
235.9130162200342
 20
236.5216076653052
 30
-78.84077455021306
 41
0.7071067811865495
 10
238.2918315792306
 20
238.9004230245015
 30
-78.84077455021308
 41
1.0
 10
240.6706469384269
 20
241.2792383836978
 30
-78.84077455021306
 41
0.7071067811865495
 10
243.0494622976233
 20
238.9004230245016
 30
-78.84077455021311
 41
1.0
  0
LINE
  5
9F
330
1F
100
AcDbEntity
  8
bottom box
100
AcDbLine
 10
243.0494622976233
 20
238.9004230245016
 30
-78.84077455021311
 11
245.4581545686693
 21
236.5360752730396
 31
-78.84077455021311
  0
LINE
  5
A0
330
1F
100
AcDbEntity
  8
bottom box
100
AcDbLine
 10
245.4581545686693
 20
236.5360752730396
 30
-78.84077455021311
 11
241.2848168758003
 21
232.3627375801707
 31
-78.8407745502131
  0
LINE
  5
A1
330
1F
100
AcDbEntity
  8
bottom box
100
AcDbLine
 10
241.2848168758003
 20
232.3627375801707
 30
-78.8407745502131
 11
243.6636322349967
 21
229.9839222209744
 31
-78.8407745502131
  0
LINE
  5
A2
330
1F
100
AcDbEntity
  8
bottom box
100
AcDbLine
 10
247.7704531484895
 20
238.8483738528599
 30
-78.8407745502131
 11
245.4282776568196
 21
241.2792383836979
 31
-78.84077455021311
  0
SPLINE
  5
A3
330
1F
100
AcDbEntity
  8
bottom box
100
AcDbSpline
210
0.0
220
0.0
230
1.0
 70
    12
 71
     2
 72
     8
 73
     5
 74
     0
 42
0.0000000001
 43
0.0000000001
 40
12.71129495482915
 40
12.71129495482915
 40
12.71129495482915
 40
17.42368393521384
 40
17.42368393521384
 40
22.13607291559853
 40
22.13607291559853
 40
22.13607291559853
 10
245.4282776568196
 20
241.2792383836979
 30
-78.84077455021311
 41
1.0
 10
240.670646938427
 20
246.0368691020906
 30
-78.84077455021307
 41
0.7071067811865469
 10
235.9130162200342
 20
241.2792383836979
 30
-78.84077455021307
 41
1.0
 10
231.1553855016415
 20
236.5216076653053
 30
-78.84077455021306
 41
0.7071067811865469
 10
235.9130162200342
 20
231.7639769469126
 30
-78.8407745502131
 41
1.0
  0
LINE
  5
A4
330
1F
100
AcDbEntity
  8
bottom box
100
AcDbLine
 10
235.9130162200342
 20
231.7639769469126
 30
-78.8407745502131
 11
247.8510414816238
 21
219.825951685323
 31
-78.8407745502131
  0
SPLINE
  5
A5
330
1F
100
AcDbEntity
  8
bottom box
100
AcDbSpline
210
0.0
220
0.0
230
1.0
 70
    12
 71
     2
 72
     6
 73
     3
 74
     0
 42
0.0000000001
 43
0.0000000001
 40
26.01511073747396
 40
26.01511073747396
 40
26.01511073747396
 40
27.66849562267522
 40
27.66849562267522
 40
27.66849562267522
 10
247.8510414816238
 20
219.825951685323
 30
-78.8407745502131
 41
1.0
 10
247.2774372259411
 20
222.1270179112671
 30
-78.84077455021307
 41
0.9572681607850996
 10
248.0738539796001
 20
224.3607699057394
 30
-78.8407745502131
 41
1.0
  0
LINE
  5
A6
330
1F
100
AcDbEntity
  8
bottom box
100
AcDbLine
 10
253.5518400072813
 20
239.872129993259
 30
-78.84077455021311
 11
251.173024648085
 21
242.2509453524553
 31
-78.84077455021311
  0
LINE
  5
A7
330
1F
100
AcDbEntity
  8
bottom box
100
AcDbLine
 10
247.7704531484895
 20
238.8483738528599
 30
-78.8407745502131
 11
251.173024648085
 21
242.2509453524553
 31
-78.84077455021311
  0
LINE
  5
A8
330
1F
100
AcDbEntity
  8
bottom box
100
AcDbLine
 10
253.5518400072813
 20
239.872129993259
 30
-78.84077455021311
 11
243.6636322349967
 21
229.9839222209744
 31
-78.8407745502131
  0
LINE
  5
A9
330
1F
100
AcDbEntity
  8
bottom box
100
AcDbLine
 10
247.8225023201312
 20
234.1427923061088
 30
-75.84077455021311
 11
247.8225023201312
 21
234.1427923061088
 31
-78.26501363896669
  0
LINE
  5
AA
330
1F
100
AcDbEntity
  8
bottom box
100
AcDbLine
 10
250.2013176793276
 20
236.5216076653052
 30
-75.84077455021311
 11
250.2013176793276
 21
236.5216076653052
 31
-78.26501363896669
  0
SPLINE
  5
AB
330
1F
100
AcDbEntity
  8
bottom box
100
AcDbSpline
210
0.0
220
0.0
230
1.0
 70
    24
 71
     1
 72
     4
 73
     2
 74
     0
 42
0.0000000001
 43
0.0000000001
 40
1.557492215873144
 40
1.557492215873144
 40
6.229977367413122
 40
6.229977367413122
 10
238.2918315792306
 20
234.1427923061089
 30
-78.84077455021311
 10
238.2918315792306
 20
234.1427923061089
 30
-75.84077455021311
  0
SPLINE
  5
AC
330
1F
100
AcDbEntity
  8
bottom box
100
AcDbSpline
210
0.0
220
0.0
230
1.0
 70
    24
 71
     1
 72
     4
 73
     2
 74
     0
 42
0.0000000001
 43
0.0000000001
 40
1.557492215873183
 40
1.557492215873183
 40
6.229977367413166
 40
6.229977367413166
 10
248.0738539796001
 20
224.3607699057394
 30
-78.8407745502131
 10
248.0738539796001
 20
224.3607699057394
 30
-75.8407745502131
  0
SPLINE
  5
AD
330
1F
100
AcDbEntity
  8
bottom box
100
AcDbSpline
210
0.0
220
0.0
230
1.0
 70
    28
 71
     1
 72
     4
 73
     2
 74
     0
 42
0.0000000001
 43
0.0000000001
 40
1.557492215873055
 40
1.557492215873055
 40
6.229977367413033
 40
6.229977367413033
 10
243.0494622976233
 20
238.9004230245016
 30
-78.84077455021311
 41
1.0
 10
243.0494622976233
 20
238.9004230245016
 30
-75.84077455021311
 41
1.0
  0
SPLINE
  5
AE
330
1F
100
AcDbEntity
  8
bottom box
100
AcDbSpline
210
0.0
220
0.0
230
1.0
 70
    24
 71
     1
 72
     4
 73
     2
 74
     0
 42
0.0000000001
 43
0.0000000001
 40
1.557492215873062
 40
1.557492215873062
 40
6.229977367413055
 40
6.229977367413055
 10
245.4581545686693
 20
236.5360752730396
 30
-78.84077455021311
 10
245.4581545686693
 20
236.5360752730396
 30
-75.84077455021311
  0
SPLINE
  5
AF
330
1F
100
AcDbEntity
  8
bottom box
100
AcDbSpline
210
0.0
220
0.0
230
1.0
 70
    24
 71
     1
 72
     4
 73
     2
 74
     0
 42
0.0000000001
 43
0.0000000001
 40
1.557492215873144
 40
1.557492215873144
 40
6.229977367413122
 40
6.229977367413122
 10
241.2848168758003
 20
232.3627375801707
 30
-78.8407745502131
 10
241.2848168758003
 20
232.3627375801707
 30
-75.8407745502131
  0
LINE
  5
B0
330
1F
100
AcDbEntity
  8
bottom box
100
AcDbLine
 10
243.6636322349967
 20
229.9839222209744
 30
-78.8407745502131
 11
243.6636322349967
 21
229.9839222209744
 31
-75.8407745502131
  0
LINE
  5
B1
330
1F
100
AcDbEntity
  8
bottom box
100
AcDbLine
 10
253.5518400072813
 20
239.872129993259
 30
-78.84077455021311
 11
253.5518400072813
 21
239.872129993259
 31
-78.26501363896669
  0
LINE
  5
B2
330
1F
100
AcDbEntity
  8
bottom box
100
AcDbLine
 10
251.173024648085
 20
242.2509453524553
 30
-78.84077455021311
 11
251.173024648085
 21
242.2509453524553
 31
-78.26501363896666
  0
LINE
  5
B3
330
1F
100
AcDbEntity
  8
bottom box
100
AcDbLine
 10
247.7704531484895
 20
238.8483738528599
 30
-78.8407745502131
 11
247.7704531484895
 21
238.8483738528598
 31
-75.8407745502131
  0
SPLINE
  5
B4
330
1F
100
AcDbEntity
  8
bottom box
100
AcDbSpline
210
0.0
220
0.0
230
1.0
 70
    24
 71
     1
 72
     4
 73
     2
 74
     0
 42
0.0000000001
 43
0.0000000001
 40
1.557492215873055
 40
1.557492215873055
 40
6.229977367413028
 40
6.229977367413028
 10
245.4282776568196
 20
241.2792383836979
 30
-78.84077455021311
 10
245.4282776568196
 20
241.2792383836979
 30
-75.84077455021311
  0
SPLINE
  5
B5
330
1F
100
AcDbEntity
  8
bottom box
100
AcDbSpline
210
0.0
220
0.0
230
1.0
 70
    28
 71
     1
 72
     4
 73
     2
 74
     0
 42
0.0000000001
 43
0.0000000001
 40
1.557492215873144
 40
1.557492215873144
 40
6.229977367413117
 40
6.229977367413117
 10
235.9130162200342
 20
231.7639769469126
 30
-78.8407745502131
 41
1.0
 10
235.9130162200342
 20
231.7639769469125
 30
-75.8407745502131
 41
1.0
  0
SPLINE
  5
B6
330
1F
100
AcDbEntity
  8
bottom box
100
AcDbSpline
210
0.0
220
0.0
230
1.0
 70
    24
 71
     1
 72
     4
 73
     2
 74
     0
 42
0.0000000001
 43
0.0000000001
 40
1.557492215873183
 40
1.557492215873183
 40
6.229977367413166
 40
6.229977367413166
 10
247.8510414816238
 20
219.825951685323
 30
-78.8407745502131
 10
247.8510414816238
 20
219.825951685323
 30
-75.8407745502131
  0
SPLINE
  5
B7
330
1F
100
AcDbEntity
  8
bottom box
100
AcDbSpline
210
0.0
220
0.0
230
1.0
 70
    24
 71
     1
 72
     4
 73
     2
 74
     0
 42
0.0000000001
 43
0.0000000001
 40
-1.452868850361493
 40
-1.452868850361493
 40
0.0
 40
0.0
 10
253.5518400072813
 20
239.872129993259
 30
-75.84077455021311
 10
253.5518400072813
 20
239.872129993259
 30
-78.26501363896669
  0
SPLINE
  5
B8
330
1F
100
AcDbEntity
  8
bottom box
100
AcDbSpline
210
0.0
220
0.0
230
1.0
 70
    24
 71
     1
 72
     4
 73
     2
 74
     0
 42
0.0000000001
 43
0.0000000001
 40
7.004029295482523
 40
7.004029295482523
 40
8.504029295482521
 40
8.504029295482521
 10
257.3834648943809
 20
233.1710853373514
 30
-78.26501363896668
 10
259.7622802535772
 20
230.792269978155
 30
-78.26501363896668
  0
LINE
  5
B9
330
1F
100
AcDbEntity
  8
bottom box
100
AcDbLine
 10
260.7339872223347
 20
236.5216076653052
 30
-78.26501363896669
 11
263.1128025815311
 21
238.9004230245015
 31
-78.26501363896669
  0
LINE
  5
BA
330
1F
100
AcDbEntity
  8
bottom box
100
AcDbLine
 10
262.8614509220621
 20
248.682445424871
 30
-75.84077455021311
 11
272.6434733224317
 21
238.9004230245015
 31
-75.84077455021311
  0
SPLINE
  5
BB
330
1F
100
AcDbEntity
  8
bottom box
100
AcDbSpline
210
0.0
220
0.0
230
1.0
 70
    12
 71
     2
 72
     8
 73
     5
 74
     0
 42
0.0000000001
 43
0.0000000001
 40
-17.39516517817905
 40
-17.39516517817905
 40
-17.39516517817905
 40
-11.71238899122066
 40
-11.71238899122066
 40
-6.029612804262264
 40
-6.029612804262264
 40
-6.029612804262264
 10
272.6434733224317
 20
238.9004230245015
 30
-75.84077455021311
 41
1.0
 10
275.022288681628
 20
236.5216076653052
 30
-75.84077455021311
 41
0.707106781186549
 10
272.6434733224317
 20
234.1427923061088
 30
-75.84077455021313
 41
1.0
 10
270.2646579632354
 20
231.7639769469125
 30
-75.84077455021311
 41
0.707106781186549
 10
267.8858426040389
 20
234.1427923061088
 30
-75.84077455021311
 41
1.0
  0
LINE
  5
BC
330
1F
100
AcDbEntity
  8
bottom box
100
AcDbLine
 10
267.8858426040389
 20
234.1427923061088
 30
-75.84077455021311
 11
265.4771503329929
 21
236.5071400575708
 31
-75.84077455021311
  0
LINE
  5
BD
330
1F
100
AcDbEntity
  8
bottom box
100
AcDbLine
 10
265.4771503329929
 20
236.5071400575708
 30
-75.84077455021311
 11
269.6504880258619
 21
240.6804777504397
 31
-75.8407745502131
  0
LINE
  5
BE
330
1F
100
AcDbEntity
  8
bottom box
100
AcDbLine
 10
269.6504880258619
 20
240.6804777504397
 30
-75.8407745502131
 11
267.2716726666656
 21
243.059293109636
 31
-75.84077455021311
  0
LINE
  5
BF
330
1F
100
AcDbEntity
  8
bottom box
100
AcDbLine
 10
263.1648517531727
 20
234.1948414777505
 30
-75.84077455021311
 11
265.5070272448426
 21
231.7639769469125
 31
-75.8407745502131
  0
SPLINE
  5
C0
330
1F
100
AcDbEntity
  8
bottom box
100
AcDbSpline
210
0.0
220
0.0
230
1.0
 70
    12
 71
     2
 72
     8
 73
     5
 74
     0
 42
0.0000000001
 43
0.0000000001
 40
12.71129495482915
 40
12.71129495482915
 40
12.71129495482915
 40
17.42368393521384
 40
17.42368393521384
 40
22.13607291559853
 40
22.13607291559853
 40
22.13607291559853
 10
265.5070272448426
 20
231.7639769469125
 30
-75.8407745502131
 41
1.0
 10
270.2646579632354
 20
227.0063462285198
 30
-75.84077455021311
 41
0.7071067811865474
 10
275.022288681628
 20
231.7639769469125
 30
-75.84077455021311
 41
1.0
 10
279.7799194000207
 20
236.5216076653051
 30
-75.84077455021311
 41
0.7071067811865474
 10
275.022288681628
 20
241.2792383836978
 30
-75.84077455021311
 41
1.0
  0
LINE
  5
C1
330
1F
100
AcDbEntity
  8
bottom box
100
AcDbLine
 10
275.022288681628
 20
241.2792383836978
 30
-75.84077455021311
 11
263.0842634200384
 21
253.2172636452874
 31
-75.84077455021311
  0
SPLINE
  5
C2
330
1F
100
AcDbEntity
  8
bottom box
100
AcDbSpline
210
0.0
220
0.0
230
1.0
 70
    12
 71
     2
 72
     6
 73
     3
 74
     0
 42
0.0000000001
 43
0.0000000001
 40
26.01511073747396
 40
26.01511073747396
 40
26.01511073747396
 40
27.66849562267522
 40
27.66849562267522
 40
27.66849562267522
 10
263.0842634200384
 20
253.2172636452874
 30
-75.84077455021311
 41
1.0
 10
263.6578676757211
 20
250.9161974193433
 30
-75.84077455021313
 41
0.9572681607851016
 10
262.8614509220621
 20
248.682445424871
 30
-75.84077455021311
 41
1.0
  0
LINE
  5
C3
330
1F
100
AcDbEntity
  8
bottom box
100
AcDbLine
 10
257.3834648943809
 20
233.1710853373514
 30
-75.8407745502131
 11
260.7339872223347
 21
236.5216076653052
 31
-75.84077455021311
  0
LINE
  5
C4
330
1F
100
AcDbEntity
  8
bottom box
100
AcDbLine
 10
263.1128025815311
 20
238.9004230245015
 30
-75.84077455021313
 11
267.2716726666656
 21
243.059293109636
 31
-75.84077455021311
  0
LINE
  5
C5
330
1F
100
AcDbEntity
  8
bottom box
100
AcDbLine
 10
263.1128025815311
 20
238.9004230245015
 30
-75.84077455021313
 11
260.7339872223347
 21
236.5216076653052
 31
-75.84077455021311
  0
LINE
  5
C6
330
1F
100
AcDbEntity
  8
bottom box
100
AcDbLine
 10
263.1648517531727
 20
234.1948414777505
 30
-75.84077455021311
 11
259.7622802535772
 21
230.792269978155
 31
-75.8407745502131
  0
LINE
  5
C7
330
1F
100
AcDbEntity
  8
bottom box
100
AcDbLine
 10
257.3834648943809
 20
233.1710853373514
 30
-75.8407745502131
 11
259.7622802535772
 21
230.792269978155
 31
-75.8407745502131
  0
LINE
  5
C8
330
1F
100
AcDbEntity
  8
bottom box
100
AcDbLine
 10
262.8614509220622
 20
248.682445424871
 30
-78.84077455021311
 11
272.6434733224317
 21
238.9004230245015
 31
-78.84077455021311
  0
SPLINE
  5
C9
330
1F
100
AcDbEntity
  8
bottom box
100
AcDbSpline
210
0.0
220
0.0
230
1.0
 70
    12
 71
     2
 72
     8
 73
     5
 74
     0
 42
0.0000000001
 43
0.0000000001
 40
-17.39516517817905
 40
-17.39516517817905
 40
-17.39516517817905
 40
-11.71238899122066
 40
-11.71238899122066
 40
-6.029612804262264
 40
-6.029612804262264
 40
-6.029612804262264
 10
272.6434733224317
 20
238.9004230245015
 30
-78.84077455021311
 41
1.0
 10
275.022288681628
 20
236.5216076653051
 30
-78.84077455021313
 41
0.707106781186548
 10
272.6434733224317
 20
234.1427923061088
 30
-78.84077455021313
 41
1.0
 10
270.2646579632353
 20
231.7639769469124
 30
-78.84077455021313
 41
0.707106781186548
 10
267.8858426040389
 20
234.1427923061088
 30
-78.84077455021311
 41
1.0
  0
LINE
  5
CA
330
1F
100
AcDbEntity
  8
bottom box
100
AcDbLine
 10
267.8858426040389
 20
234.1427923061088
 30
-78.84077455021311
 11
265.4771503329929
 21
236.5071400575708
 31
-78.84077455021311
  0
LINE
  5
CB
330
1F
100
AcDbEntity
  8
bottom box
100
AcDbLine
 10
265.4771503329929
 20
236.5071400575708
 30
-78.84077455021311
 11
269.6504880258619
 21
240.6804777504397
 31
-78.84077455021311
  0
LINE
  5
CC
330
1F
100
AcDbEntity
  8
bottom box
100
AcDbLine
 10
269.6504880258619
 20
240.6804777504397
 30
-78.84077455021311
 11
267.2716726666656
 21
243.059293109636
 31
-78.84077455021311
  0
LINE
  5
CD
330
1F
100
AcDbEntity
  8
bottom box
100
AcDbLine
 10
263.1648517531727
 20
234.1948414777505
 30
-78.84077455021311
 11
265.5070272448426
 21
231.7639769469125
 31
-78.8407745502131
  0
SPLINE
  5
CE
330
1F
100
AcDbEntity
  8
bottom box
100
AcDbSpline
210
0.0
220
0.0
230
1.0
 70
    12
 71
     2
 72
     8
 73
     5
 74
     0
 42
0.0000000001
 43
0.0000000001
 40
12.71129495482915
 40
12.71129495482915
 40
12.71129495482915
 40
17.42368393521384
 40
17.42368393521384
 40
22.13607291559853
 40
22.13607291559853
 40
22.13607291559853
 10
265.5070272448426
 20
231.7639769469125
 30
-78.8407745502131
 41
1.0
 10
270.2646579632353
 20
227.0063462285198
 30
-78.84077455021311
 41
0.7071067811865471
 10
275.022288681628
 20
231.7639769469125
 30
-78.84077455021313
 41
1.0
 10
279.7799194000207
 20
236.5216076653051
 30
-78.84077455021311
 41
0.7071067811865471
 10
275.022288681628
 20
241.2792383836979
 30
-78.84077455021311
 41
1.0
  0
LINE
  5
CF
330
1F
100
AcDbEntity
  8
bottom box
100
AcDbLine
 10
275.022288681628
 20
241.2792383836979
 30
-78.84077455021311
 11
263.0842634200384
 21
253.2172636452874
 31
-78.8407745502131
  0
SPLINE
  5
D0
330
1F
100
AcDbEntity
  8
bottom box
100
AcDbSpline
210
0.0
220
0.0
230
1.0
 70
    12
 71
     2
 72
     6
 73
     3
 74
     0
 42
0.0000000001
 43
0.0000000001
 40
26.01511073747396
 40
26.01511073747396
 40
26.01511073747396
 40
27.66849562267522
 40
27.66849562267522
 40
27.66849562267522
 10
263.0842634200384
 20
253.2172636452874
 30
-78.8407745502131
 41
1.0
 10
263.6578676757211
 20
250.9161974193434
 30
-78.8407745502131
 41
0.9572681607851024
 10
262.8614509220622
 20
248.682445424871
 30
-78.84077455021311
 41
1.0
  0
LINE
  5
D1
330
1F
100
AcDbEntity
  8
bottom box
100
AcDbLine
 10
257.3834648943809
 20
233.1710853373514
 30
-78.8407745502131
 11
259.7622802535772
 21
230.792269978155
 31
-78.8407745502131
  0
LINE
  5
D2
330
1F
100
AcDbEntity
  8
bottom box
100
AcDbLine
 10
257.3834648943809
 20
233.1710853373514
 30
-78.8407745502131
 11
267.2716726666656
 21
243.059293109636
 31
-78.84077455021311
  0
LINE
  5
D3
330
1F
100
AcDbEntity
  8
bottom box
100
AcDbLine
 10
263.1648517531727
 20
234.1948414777505
 30
-78.84077455021311
 11
259.7622802535772
 21
230.792269978155
 31
-78.8407745502131
  0
LINE
  5
D4
330
1F
100
AcDbEntity
  8
bottom box
100
AcDbLine
 10
263.1128025815311
 20
238.9004230245015
 30
-75.84077455021313
 11
263.1128025815311
 21
238.9004230245015
 31
-78.26501363896669
  0
LINE
  5
D5
330
1F
100
AcDbEntity
  8
bottom box
100
AcDbLine
 10
260.7339872223347
 20
236.5216076653052
 30
-75.84077455021311
 11
260.7339872223347
 21
236.5216076653052
 31
-78.26501363896669
  0
SPLINE
  5
D6
330
1F
100
AcDbEntity
  8
bottom box
100
AcDbSpline
210
0.0
220
0.0
230
1.0
 70
    24
 71
     1
 72
     4
 73
     2
 74
     0
 42
0.0000000001
 43
0.0000000001
 40
1.557492215873055
 40
1.557492215873055
 40
6.229977367413033
 40
6.229977367413033
 10
272.6434733224317
 20
238.9004230245015
 30
-78.84077455021311
 10
272.6434733224317
 20
238.9004230245015
 30
-75.84077455021311
  0
SPLINE
  5
D7
330
1F
100
AcDbEntity
  8
bottom box
100
AcDbSpline
210
0.0
220
0.0
230
1.0
 70
    24
 71
     1
 72
     4
 73
     2
 74
     0
 42
0.0000000001
 43
0.0000000001
 40
1.557492215872967
 40
1.557492215872967
 40
6.229977367412927
 40
6.229977367412927
 10
262.8614509220622
 20
248.682445424871
 30
-78.84077455021311
 10
262.8614509220621
 20
248.682445424871
 30
-75.84077455021311
  0
SPLINE
  5
D8
330
1F
100
AcDbEntity
  8
bottom box
100
AcDbSpline
210
0.0
220
0.0
230
1.0
 70
    28
 71
     1
 72
     4
 73
     2
 74
     0
 42
0.0000000001
 43
0.0000000001
 40
1.557492215873144
 40
1.557492215873144
 40
6.229977367413122
 40
6.229977367413122
 10
267.8858426040389
 20
234.1427923061088
 30
-78.84077455021311
 41
1.0
 10
267.8858426040389
 20
234.1427923061088
 30
-75.84077455021311
 41
1.0
  0
SPLINE
  5
D9
330
1F
100
AcDbEntity
  8
bottom box
100
AcDbSpline
210
0.0
220
0.0
230
1.0
 70
    24
 71
     1
 72
     4
 73
     2
 74
     0
 42
0.0000000001
 43
0.0000000001
 40
1.557492215873062
 40
1.557492215873062
 40
6.229977367413044
 40
6.229977367413044
 10
265.4771503329929
 20
236.5071400575708
 30
-78.84077455021311
 10
265.4771503329929
 20
236.5071400575708
 30
-75.84077455021311
  0
SPLINE
  5
DA
330
1F
100
AcDbEntity
  8
bottom box
100
AcDbSpline
210
0.0
220
0.0
230
1.0
 70
    24
 71
     1
 72
     4
 73
     2
 74
     0
 42
0.0000000001
 43
0.0000000001
 40
1.557492215873055
 40
1.557492215873055
 40
6.229977367413033
 40
6.229977367413033
 10
269.6504880258619
 20
240.6804777504397
 30
-78.84077455021311
 10
269.6504880258619
 20
240.6804777504397
 30
-75.8407745502131
  0
LINE
  5
DB
330
1F
100
AcDbEntity
  8
bottom box
100
AcDbLine
 10
267.2716726666656
 20
243.059293109636
 30
-78.84077455021311
 11
267.2716726666656
 21
243.059293109636
 31
-75.84077455021311
  0
LINE
  5
DC
330
1F
100
AcDbEntity
  8
bottom box
100
AcDbLine
 10
257.3834648943809
 20
233.1710853373514
 30
-78.8407745502131
 11
257.3834648943809
 21
233.1710853373514
 31
-78.26501363896668
  0
LINE
  5
DD
330
1F
100
AcDbEntity
  8
bottom box
100
AcDbLine
 10
259.7622802535772
 20
230.792269978155
 30
-78.8407745502131
 11
259.7622802535772
 21
230.792269978155
 31
-78.26501363896668
  0
LINE
  5
DE
330
1F
100
AcDbEntity
  8
bottom box
100
AcDbLine
 10
263.1648517531727
 20
234.1948414777505
 30
-78.84077455021311
 11
263.1648517531727
 21
234.1948414777505
 31
-75.84077455021311
  0
SPLINE
  5
DF
330
1F
100
AcDbEntity
  8
bottom box
100
AcDbSpline
210
0.0
220
0.0
230
1.0
 70
    24
 71
     1
 72
     4
 73
     2
 74
     0
 42
0.0000000001
 43
0.0000000001
 40
1.557492215873138
 40
1.557492215873138
 40
6.229977367413104
 40
6.229977367413104
 10
265.5070272448426
 20
231.7639769469125
 30
-78.8407745502131
 10
265.5070272448426
 20
231.7639769469125
 30
-75.8407745502131
  0
SPLINE
  5
E0
330
1F
100
AcDbEntity
  8
bottom box
100
AcDbSpline
210
0.0
220
0.0
230
1.0
 70
    28
 71
     1
 72
     4
 73
     2
 74
     0
 42
0.0000000001
 43
0.0000000001
 40
1.557492215873055
 40
1.557492215873055
 40
6.229977367413033
 40
6.229977367413033
 10
275.022288681628
 20
241.2792383836979
 30
-78.84077455021311
 41
1.0
 10
275.022288681628
 20
241.2792383836978
 30
-75.84077455021311
 41
1.0
  0
SPLINE
  5
E1
330
1F
100
AcDbEntity
  8
bottom box
100
AcDbSpline
210
0.0
220
0.0
230
1.0
 70
    24
 71
     1
 72
     4
 73
     2
 74
     0
 42
0.0000000001
 43
0.0000000001
 40
1.557492215872967
 40
1.557492215872967
 40
6.229977367412944
 40
6.229977367412944
 10
263.0842634200384
 20
253.2172636452874
 30
-78.8407745502131
 10
263.0842634200384
 20
253.2172636452874
 30
-75.84077455021311
  0
SPLINE
  5
E2
330
1F
100
AcDbEntity
  8
bottom box
100
AcDbSpline
210
0.0
220
0.0
230
1.0
 70
    24
 71
     1
 72
     4
 73
     2
 74
     0
 42
0.0000000001
 43
0.0000000001
 40
-1.452868850361483
 40
-1.452868850361483
 40
0.0
 40
0.0
 10
257.3834648943809
 20
233.1710853373514
 30
-75.8407745502131
 10
257.3834648943809
 20
233.1710853373514
 30
-78.26501363896668
  0
SPLINE
  5
E3
330
1F
100
AcDbEntity
  8
bottom box
100
AcDbSpline
210
0.0
220
0.0
230
1.0
 70
    24
 71
     1
 72
     4
 73
     2
 74
     0
 42
0.0000000001
 43
0.0000000001
 40
-1.452868850361483
 40
-1.452868850361483
 40
0.0
 40
0.0
 10
259.7622802535772
 20
230.792269978155
 30
-75.8407745502131
 10
259.7622802535772
 20
230.792269978155
 30
-78.26501363896668
  0
SPLINE
  5
E4
330
1F
100
AcDbEntity
  8
bottom box
100
AcDbSpline
210
0.0
220
0.0
230
1.0
 70
    24
 71
     1
 72
     4
 73
     2
 74
     0
 42
0.0000000001
 43
0.0000000001
 40
7.004029295482523
 40
7.004029295482523
 40
8.504029295482521
 40
8.504029295482521
 10
252.1171301228773
 20
234.6057952217554
 30
-78.26501363896669
 10
249.7383147636809
 20
232.2269798625591
 30
-78.26501363896668
  0
LINE
  5
E5
330
1F
100
AcDbEntity
  8
bottom box
100
AcDbLine
 10
255.4676524508311
 20
231.2552728938016
 30
-78.26501363896674
 11
257.8464678100275
 21
228.8764575346053
 31
-78.26501363896674
  0
LINE
  5
E6
330
1F
100
AcDbEntity
  8
bottom box
100
AcDbLine
 10
255.4676524508311
 20
231.2552728938016
 30
-78.26501363896674
 11
255.4676524508311
 21
231.2552728938016
 31
-75.8407745502131
  0
SPLINE
  5
E7
330
1F
100
AcDbEntity
  8
bottom box
100
AcDbSpline
210
0.0
220
0.0
230
1.0
 70
    24
 71
     1
 72
     4
 73
     2
 74
     0
 42
0.0000000001
 43
0.0000000001
 40
0.0
 40
0.0
 40
1.452868850361484
 40
1.452868850361484
 10
249.7383147636809
 20
232.2269798625591
 30
-78.26501363896668
 10
249.7383147636809
 20
232.2269798625591
 30
-75.8407745502131
  0
LINE
  5
E8
330
1F
100
AcDbEntity
  8
bottom box
100
AcDbLine
 10
267.6284902103969
 20
229.1278091940742
 30
-75.8407745502131
 11
257.8464678100274
 21
219.3457867937046
 31
-75.8407745502131
  0
SPLINE
  5
E9
330
1F
100
AcDbEntity
  8
bottom box
100
AcDbSpline
210
0.0
220
0.0
230
1.0
 70
    12
 71
     2
 72
     8
 73
     5
 74
     0
 42
0.0000000001
 43
0.0000000001
 40
-17.39516517817905
 40
-17.39516517817905
 40
-17.39516517817905
 40
-11.71238899122066
 40
-11.71238899122066
 40
-6.029612804262264
 40
-6.029612804262264
 40
-6.029612804262264
 10
257.8464678100274
 20
219.3457867937046
 30
-75.8407745502131
 41
1.0
 10
255.4676524508311
 20
216.9669714345083
 30
-75.84077455021308
 41
0.7071067811865492
 10
253.0888370916347
 20
219.3457867937046
 30
-75.84077455021308
 41
1.0
 10
250.7100217324384
 20
221.724602152901
 30
-75.84077455021306
 41
0.7071067811865492
 10
253.0888370916347
 20
224.1034175120973
 30
-75.84077455021308
 41
1.0
  0
LINE
  5
EA
330
1F
100
AcDbEntity
  8
bottom box
100
AcDbLine
 10
253.0888370916347
 20
224.1034175120973
 30
-75.84077455021308
 11
255.4531848430967
 21
226.5121097831434
 31
-75.8407745502131
  0
LINE
  5
EB
330
1F
100
AcDbEntity
  8
bottom box
100
AcDbLine
 10
255.4531848430967
 20
226.5121097831434
 30
-75.8407745502131
 11
259.6265225359656
 21
222.3387720902745
 31
-75.84077455021308
  0
LINE
  5
EC
330
1F
100
AcDbEntity
  8
bottom box
100
AcDbLine
 10
259.6265225359656
 20
222.3387720902745
 30
-75.84077455021308
 11
262.005337895162
 21
224.7175874494708
 31
-75.8407745502131
  0
LINE
  5
ED
330
1F
100
AcDbEntity
  8
bottom box
100
AcDbLine
 10
253.1408862632764
 20
228.8244083629636
 30
-75.8407745502131
 11
250.7100217324384
 21
226.4822328712937
 31
-75.8407745502131
  0
SPLINE
  5
EE
330
1F
100
AcDbEntity
  8
bottom box
100
AcDbSpline
210
0.0
220
0.0
230
1.0
 70
    12
 71
     2
 72
     8
 73
     5
 74
     0
 42
0.0000000001
 43
0.0000000001
 40
12.71129495482915
 40
12.71129495482915
 40
12.71129495482915
 40
17.42368393521384
 40
17.42368393521384
 40
22.13607291559853
 40
22.13607291559853
 40
22.13607291559853
 10
250.7100217324384
 20
226.4822328712937
 30
-75.8407745502131
 41
1.0
 10
245.9523910140457
 20
221.724602152901
 30
-75.84077455021307
 41
0.7071067811865489
 10
250.7100217324383
 20
216.9669714345083
 30
-75.84077455021311
 41
1.0
 10
255.4676524508311
 20
212.2093407161156
 30
-75.84077455021308
 41
0.7071067811865489
 10
260.2252831692238
 20
216.9669714345083
 30
-75.8407745502131
 41
1.0
  0
LINE
  5
EF
330
1F
100
AcDbEntity
  8
bottom box
100
AcDbLine
 10
260.2252831692238
 20
216.9669714345083
 30
-75.8407745502131
 11
272.1633084308133
 21
228.9049966960978
 31
-75.84077455021308
  0
SPLINE
  5
F0
330
1F
100
AcDbEntity
  8
bottom box
100
AcDbSpline
210
0.0
220
0.0
230
1.0
 70
    12
 71
     2
 72
     6
 73
     3
 74
     0
 42
0.0000000001
 43
0.0000000001
 40
26.01511073747396
 40
26.01511073747396
 40
26.01511073747396
 40
27.66849562267522
 40
27.66849562267522
 40
27.66849562267522
 10
272.1633084308133
 20
228.9049966960978
 30
-75.84077455021308
 41
1.0
 10
269.8622422048692
 20
228.3313924404152
 30
-75.84077455021311
 41
0.9572681607851028
 10
267.6284902103969
 20
229.1278091940742
 30
-75.8407745502131
 41
1.0
  0
LINE
  5
F1
330
1F
100
AcDbEntity
  8
bottom box
100
AcDbLine
 10
252.1171301228773
 20
234.6057952217554
 30
-75.84077455021311
 11
255.4676524508311
 21
231.2552728938016
 31
-75.8407745502131
  0
LINE
  5
F2
330
1F
100
AcDbEntity
  8
bottom box
100
AcDbLine
 10
257.8464678100275
 20
228.8764575346053
 30
-75.8407745502131
 11
262.005337895162
 21
224.7175874494708
 31
-75.8407745502131
  0
LINE
  5
F3
330
1F
100
AcDbEntity
  8
bottom box
100
AcDbLine
 10
253.1408862632764
 20
228.8244083629636
 30
-75.8407745502131
 11
249.7383147636809
 21
232.2269798625591
 31
-75.8407745502131
  0
LINE
  5
F4
330
1F
100
AcDbEntity
  8
bottom box
100
AcDbLine
 10
252.1171301228773
 20
234.6057952217554
 30
-75.84077455021311
 11
249.7383147636809
 21
232.2269798625591
 31
-75.8407745502131
  0
LINE
  5
F5
330
1F
100
AcDbEntity
  8
bottom box
100
AcDbLine
 10
257.8464678100275
 20
228.8764575346053
 30
-75.8407745502131
 11
255.4676524508311
 21
231.2552728938016
 31
-75.8407745502131
  0
LINE
  5
F6
330
1F
100
AcDbEntity
  8
bottom box
100
AcDbLine
 10
267.6284902103969
 20
229.1278091940741
 30
-78.8407745502131
 11
257.8464678100274
 21
219.3457867937046
 31
-78.8407745502131
  0
SPLINE
  5
F7
330
1F
100
AcDbEntity
  8
bottom box
100
AcDbSpline
210
0.0
220
0.0
230
1.0
 70
    12
 71
     2
 72
     8
 73
     5
 74
     0
 42
0.0000000001
 43
0.0000000001
 40
-17.39516517817905
 40
-17.39516517817905
 40
-17.39516517817905
 40
-11.71238899122066
 40
-11.71238899122066
 40
-6.029612804262264
 40
-6.029612804262264
 40
-6.029612804262264
 10
257.8464678100274
 20
219.3457867937046
 30
-78.8407745502131
 41
1.0
 10
255.4676524508311
 20
216.9669714345082
 30
-78.8407745502131
 41
0.7071067811865497
 10
253.0888370916347
 20
219.3457867937046
 30
-78.8407745502131
 41
1.0
 10
250.7100217324384
 20
221.7246021529009
 30
-78.8407745502131
 41
0.7071067811865497
 10
253.0888370916347
 20
224.1034175120973
 30
-78.84077455021311
 41
1.0
  0
LINE
  5
F8
330
1F
100
AcDbEntity
  8
bottom box
100
AcDbLine
 10
253.0888370916347
 20
224.1034175120973
 30
-78.84077455021311
 11
255.4531848430967
 21
226.5121097831434
 31
-78.8407745502131
  0
LINE
  5
F9
330
1F
100
AcDbEntity
  8
bottom box
100
AcDbLine
 10
255.4531848430967
 20
226.5121097831434
 30
-78.8407745502131
 11
259.6265225359656
 21
222.3387720902745
 31
-78.8407745502131
  0
LINE
  5
FA
330
1F
100
AcDbEntity
  8
bottom box
100
AcDbLine
 10
259.6265225359656
 20
222.3387720902745
 30
-78.8407745502131
 11
262.005337895162
 21
224.7175874494708
 31
-78.8407745502131
  0
LINE
  5
FB
330
1F
100
AcDbEntity
  8
bottom box
100
AcDbLine
 10
253.1408862632764
 20
228.8244083629636
 30
-78.8407745502131
 11
250.7100217324384
 21
226.4822328712937
 31
-78.8407745502131
  0
SPLINE
  5
FC
330
1F
100
AcDbEntity
  8
bottom box
100
AcDbSpline
210
0.0
220
0.0
230
1.0
 70
    12
 71
     2
 72
     8
 73
     5
 74
     0
 42
0.0000000001
 43
0.0000000001
 40
12.71129495482915
 40
12.71129495482915
 40
12.71129495482915
 40
17.42368393521384
 40
17.42368393521384
 40
22.13607291559853
 40
22.13607291559853
 40
22.13607291559853
 10
250.7100217324384
 20
226.4822328712937
 30
-78.8407745502131
 41
1.0
 10
245.9523910140457
 20
221.724602152901
 30
-78.8407745502131
 41
0.7071067811865492
 10
250.7100217324384
 20
216.9669714345083
 30
-78.8407745502131
 41
1.0
 10
255.467652450831
 20
212.2093407161156
 30
-78.8407745502131
 41
0.7071067811865492
 10
260.2252831692238
 20
216.9669714345083
 30
-78.8407745502131
 41
1.0
  0
LINE
  5
FD
330
1F
100
AcDbEntity
  8
bottom box
100
AcDbLine
 10
260.2252831692238
 20
216.9669714345083
 30
-78.8407745502131
 11
272.1633084308133
 21
228.9049966960978
 31
-78.8407745502131
  0
SPLINE
  5
FE
330
1F
100
AcDbEntity
  8
bottom box
100
AcDbSpline
210
0.0
220
0.0
230
1.0
 70
    12
 71
     2
 72
     6
 73
     3
 74
     0
 42
0.0000000001
 43
0.0000000001
 40
26.01511073747396
 40
26.01511073747396
 40
26.01511073747396
 40
27.66849562267522
 40
27.66849562267522
 40
27.66849562267522
 10
272.1633084308133
 20
228.9049966960978
 30
-78.8407745502131
 41
1.0
 10
269.8622422048692
 20
228.3313924404152
 30
-78.84077455021307
 41
0.9572681607851037
 10
267.6284902103969
 20
229.1278091940741
 30
-78.8407745502131
 41
1.0
  0
LINE
  5
FF
330
1F
100
AcDbEntity
  8
bottom box
100
AcDbLine
 10
252.1171301228773
 20
234.6057952217554
 30
-78.84077455021311
 11
249.7383147636809
 21
232.2269798625591
 31
-78.8407745502131
  0
LINE
  5
100
330
1F
100
AcDbEntity
  8
bottom box
100
AcDbLine
 10
252.1171301228773
 20
234.6057952217554
 30
-78.84077455021311
 11
262.005337895162
 21
224.7175874494708
 31
-78.8407745502131
  0
LINE
  5
101
330
1F
100
AcDbEntity
  8
bottom box
100
AcDbLine
 10
253.1408862632764
 20
228.8244083629636
 30
-78.8407745502131
 11
249.7383147636809
 21
232.2269798625591
 31
-78.8407745502131
  0
SPLINE
  5
102
330
1F
100
AcDbEntity
  8
bottom box
100
AcDbSpline
210
0.0
220
0.0
230
1.0
 70
    24
 71
     1
 72
     4
 73
     2
 74
     0
 42
0.0000000001
 43
0.0000000001
 40
1.557492215873183
 40
1.557492215873183
 40
6.229977367413166
 40
6.229977367413166
 10
257.8464678100274
 20
219.3457867937046
 30
-78.8407745502131
 10
257.8464678100274
 20
219.3457867937046
 30
-75.8407745502131
  0
SPLINE
  5
103
330
1F
100
AcDbEntity
  8
bottom box
100
AcDbSpline
210
0.0
220
0.0
230
1.0
 70
    24
 71
     1
 72
     4
 73
     2
 74
     0
 42
0.0000000001
 43
0.0000000001
 40
1.557492215873144
 40
1.557492215873144
 40
6.229977367413104
 40
6.229977367413104
 10
267.6284902103969
 20
229.1278091940741
 30
-78.8407745502131
 10
267.6284902103969
 20
229.1278091940742
 30
-75.8407745502131
  0
SPLINE
  5
104
330
1F
100
AcDbEntity
  8
bottom box
100
AcDbSpline
210
0.0
220
0.0
230
1.0
 70
    28
 71
     1
 72
     4
 73
     2
 74
     0
 42
0.0000000001
 43
0.0000000001
 40
1.557492215873183
 40
1.557492215873183
 40
6.229977367413166
 40
6.229977367413166
 10
253.0888370916347
 20
224.1034175120973
 30
-78.84077455021311
 41
1.0
 10
253.0888370916347
 20
224.1034175120973
 30
-75.84077455021308
 41
1.0
  0
SPLINE
  5
105
330
1F
100
AcDbEntity
  8
bottom box
100
AcDbSpline
210
0.0
220
0.0
230
1.0
 70
    24
 71
     1
 72
     4
 73
     2
 74
     0
 42
0.0000000001
 43
0.0000000001
 40
1.557492215873144
 40
1.557492215873144
 40
6.229977367413122
 40
6.229977367413122
 10
255.4531848430967
 20
226.5121097831434
 30
-78.8407745502131
 10
255.4531848430967
 20
226.5121097831434
 30
-75.8407745502131
  0
SPLINE
  5
106
330
1F
100
AcDbEntity
  8
bottom box
100
AcDbSpline
210
0.0
220
0.0
230
1.0
 70
    24
 71
     1
 72
     4
 73
     2
 74
     0
 42
0.0000000001
 43
0.0000000001
 40
1.557492215873183
 40
1.557492215873183
 40
6.229977367413166
 40
6.229977367413166
 10
259.6265225359656
 20
222.3387720902745
 30
-78.8407745502131
 10
259.6265225359656
 20
222.3387720902745
 30
-75.84077455021308
  0
LINE
  5
107
330
1F
100
AcDbEntity
  8
bottom box
100
AcDbLine
 10
262.005337895162
 20
224.7175874494708
 30
-78.8407745502131
 11
262.005337895162
 21
224.7175874494708
 31
-75.8407745502131
  0
LINE
  5
108
330
1F
100
AcDbEntity
  8
bottom box
100
AcDbLine
 10
252.1171301228773
 20
234.6057952217554
 30
-78.84077455021311
 11
252.1171301228773
 21
234.6057952217554
 31
-78.26501363896669
  0
LINE
  5
109
330
1F
100
AcDbEntity
  8
bottom box
100
AcDbLine
 10
249.7383147636809
 20
232.2269798625591
 30
-78.8407745502131
 11
249.7383147636809
 21
232.2269798625591
 31
-78.26501363896668
  0
LINE
  5
10A
330
1F
100
AcDbEntity
  8
bottom box
100
AcDbLine
 10
253.1408862632764
 20
228.8244083629636
 30
-78.8407745502131
 11
253.1408862632764
 21
228.8244083629636
 31
-75.8407745502131
  0
SPLINE
  5
10B
330
1F
100
AcDbEntity
  8
bottom box
100
AcDbSpline
210
0.0
220
0.0
230
1.0
 70
    24
 71
     1
 72
     4
 73
     2
 74
     0
 42
0.0000000001
 43
0.0000000001
 40
1.557492215873144
 40
1.557492215873144
 40
6.229977367413117
 40
6.229977367413117
 10
250.7100217324384
 20
226.4822328712937
 30
-78.8407745502131
 10
250.7100217324384
 20
226.4822328712937
 30
-75.8407745502131
  0
SPLINE
  5
10C
330
1F
100
AcDbEntity
  8
bottom box
100
AcDbSpline
210
0.0
220
0.0
230
1.0
 70
    28
 71
     1
 72
     4
 73
     2
 74
     0
 42
0.0000000001
 43
0.0000000001
 40
1.557492215873195
 40
1.557492215873195
 40
6.229977367413188
 40
6.229977367413188
 10
260.2252831692238
 20
216.9669714345083
 30
-78.8407745502131
 41
1.0
 10
260.2252831692238
 20
216.9669714345083
 30
-75.8407745502131
 41
1.0
  0
SPLINE
  5
10D
330
1F
100
AcDbEntity
  8
bottom box
100
AcDbSpline
210
0.0
220
0.0
230
1.0
 70
    24
 71
     1
 72
     4
 73
     2
 74
     0
 42
0.0000000001
 43
0.0000000001
 40
1.557492215873144
 40
1.557492215873144
 40
6.229977367413122
 40
6.229977367413122
 10
272.1633084308133
 20
228.9049966960978
 30
-78.8407745502131
 10
272.1633084308133
 20
228.9049966960978
 30
-75.84077455021308
  0
LINE
  5
10E
330
1F
100
AcDbEntity
  8
bottom box
100
AcDbLine
 10
257.8464678100275
 20
228.8764575346053
 30
-75.8407745502131
 11
257.8464678100275
 21
228.8764575346053
 31
-78.26501363896674
  0
SPLINE
  5
10F
330
1F
100
AcDbEntity
  8
bottom box
100
AcDbSpline
210
0.0
220
0.0
230
1.0
 70
    24
 71
     1
 72
     4
 73
     2
 74
     0
 42
0.0000000001
 43
0.0000000001
 40
-1.452868850361485
 40
-1.452868850361485
 40
0.0
 40
0.0
 10
252.1171301228773
 20
234.6057952217554
 30
-75.84077455021311
 10
252.1171301228773
 20
234.6057952217554
 30
-78.26501363896669
  0
SPLINE
  5
110
330
1F
100
AcDbEntity
  8
bottom box
100
AcDbSpline
210
0.0
220
0.0
230
1.0
 70
    24
 71
     1
 72
     4
 73
     2
 74
     0
 42
0.0000000001
 43
0.0000000001
 40
-1.5
 40
-1.5
 40
1.5
 40
1.5
 10
304.8942074180459
 20
273.1987453790269
 30
-75.84077455021311
 10
304.8942074180459
 20
273.1987453790269
 30
-78.84077455021311
  0
SPLINE
  5
111
330
1F
100
AcDbEntity
  8
bottom box
100
AcDbSpline
210
0.0
220
0.0
230
1.0
 70
    24
 71
     1
 72
     4
 73
     2
 74
     0
 42
0.0000000001
 43
0.0000000001
 40
100.0780476684532
 40
100.0780476684532
 40
163.3031010569594
 40
163.3031010569594
 10
304.894207418046
 20
196.8012558392778
 30
-75.8407745502131
 10
304.8942074180459
 20
273.1987453790269
 30
-75.84077455021311
  0
SPLINE
  5
112
330
1F
100
AcDbEntity
  8
bottom box
100
AcDbSpline
210
0.0
220
0.0
230
1.0
 70
    24
 71
     1
 72
     4
 73
     2
 74
     0
 42
0.0000000001
 43
0.0000000001
 40
-163.3031010569594
 40
-163.3031010569594
 40
-100.0780476684532
 40
-100.0780476684532
 10
304.8942074180459
 20
273.1987453790269
 30
-78.84077455021311
 10
304.894207418046
 20
196.8012558392778
 30
-78.8407745502131
  0
SPLINE
  5
113
330
1F
100
AcDbEntity
  8
bottom box
100
AcDbSpline
210
0.0
220
0.0
230
1.0
 70
    24
 71
     1
 72
     4
 73
     2
 74
     0
 42
0.0000000001
 43
0.0000000001
 40
-1.5
 40
-1.5
 40
1.5
 40
1.5
 10
304.894207418046
 20
196.8012558392778
 30
-78.8407745502131
 10
304.894207418046
 20
196.8012558392778
 30
-75.8407745502131
  0
SPLINE
  5
114
330
1F
100
AcDbEntity
  8
bottom box
100
AcDbSpline
210
0.0
220
0.0
230
1.0
 70
    24
 71
     1
 72
     4
 73
     2
 74
     0
 42
0.0000000001
 43
0.0000000001
 40
6.000000000000174
 40
6.000000000000174
 40
69.99999999999982
 40
69.99999999999982
 10
304.8942074180459
 20
273.1987453790269
 30
-75.84077455021311
 10
206.0602537800222
 20
273.1987453790268
 30
-75.84077455021311
  0
SPLINE
  5
115
330
1F
100
AcDbEntity
  8
bottom box
100
AcDbSpline
210
0.0
220
0.0
230
1.0
 70
    24
 71
     1
 72
     4
 73
     2
 74
     0
 42
0.0000000001
 43
0.0000000001
 40
6.000000000000177
 40
6.000000000000177
 40
69.99999999999982
 40
69.99999999999982
 10
304.8942074180459
 20
273.1987453790269
 30
-78.84077455021311
 10
206.0602537800222
 20
273.1987453790268
 30
-78.84077455021311
  0
SPLINE
  5
116
330
1F
100
AcDbEntity
  8
bottom box
100
AcDbSpline
210
0.0
220
0.0
230
1.0
 70
    24
 71
     1
 72
     4
 73
     2
 74
     0
 42
0.0000000001
 43
0.0000000001
 40
6.000000000000173
 40
6.000000000000173
 40
69.99999999999982
 40
69.99999999999982
 10
304.894207418046
 20
196.8012558392778
 30
-78.8407745502131
 10
206.0602537800222
 20
196.8012558392778
 30
-78.8407745502131
  0
SPLINE
  5
117
330
1F
100
AcDbEntity
  8
bottom box
100
AcDbSpline
210
0.0
220
0.0
230
1.0
 70
    24
 71
     1
 72
     4
 73
     2
 74
     0
 42
0.0000000001
 43
0.0000000001
 40
6.000000000000171
 40
6.000000000000171
 40
69.99999999999982
 40
69.99999999999982
 10
304.894207418046
 20
196.8012558392778
 30
-75.8407745502131
 10
206.0602537800222
 20
196.8012558392778
 30
-75.8407745502131
  0
SPLINE
  5
118
330
1F
100
AcDbEntity
  8
bottom box
100
AcDbSpline
210
0.0
220
0.0
230
1.0
 70
    24
 71
     1
 72
     4
 73
     2
 74
     0
 42
0.0000000001
 43
0.0000000001
 40
-1.5
 40
-1.5
 40
1.5
 40
1.5
 10
206.0602537800222
 20
273.1987453790268
 30
-78.84077455021311
 10
206.0602537800222
 20
273.1987453790268
 30
-75.84077455021311
  0
SPLINE
  5
119
330
1F
100
AcDbEntity
  8
bottom box
100
AcDbSpline
210
0.0
220
0.0
230
1.0
 70
    24
 71
     1
 72
     4
 73
     2
 74
     0
 42
0.0000000001
 43
0.0000000001
 40
-163.3031010569594
 40
-163.3031010569594
 40
-100.0780476684532
 40
-100.0780476684532
 10
206.0602537800222
 20
273.1987453790268
 30
-75.84077455021311
 10
206.0602537800222
 20
196.8012558392778
 30
-75.8407745502131
  0
SPLINE
  5
11A
330
1F
100
AcDbEntity
  8
bottom box
100
AcDbSpline
210
0.0
220
0.0
230
1.0
 70
    24
 71
     1
 72
     4
 73
     2
 74
     0
 42
0.0000000001
 43
0.0000000001
 40
100.0780476684532
 40
100.0780476684532
 40
163.3031010569594
 40
163.3031010569594
 10
206.0602537800222
 20
196.8012558392778
 30
-78.8407745502131
 10
206.0602537800222
 20
273.1987453790268
 30
-78.84077455021311
  0
SPLINE
  5
11B
330
1F
100
AcDbEntity
  8
bottom box
100
AcDbSpline
210
0.0
220
0.0
230
1.0
 70
    24
 71
     1
 72
     4
 73
     2
 74
     0
 42
0.0000000001
 43
0.0000000001
 40
-1.5
 40
-1.5
 40
1.5
 40
1.5
 10
206.0602537800222
 20
196.8012558392778
 30
-75.8407745502131
 10
206.0602537800222
 20
196.8012558392778
 30
-78.8407745502131
  0
SPLINE
  5
11C
330
1F
100
AcDbEntity
  8
bottom box
100
AcDbSpline
210
0.0
220
0.0
230
1.0
 70
    24
 71
     1
 72
     4
 73
     2
 74
     0
 42
0.0000000001
 43
0.0000000001
 40
-49.40838478125183
 40
-49.40838478125183
 40
49.4255688567719
 40
49.4255688567719
 10
206.0602537800222
 20
273.1987453790268
 30
-77.34077455021311
 10
304.8942074180459
 20
273.1987453790269
 30
-77.34077455021311
  0
SPLINE
  5
11D
330
1F
100
AcDbEntity
  8
bottom box
100
AcDbSpline
210
0.0
220
0.0
230
1.0
 70
    24
 71
     1
 72
     4
 73
     2
 74
     0
 42
0.0000000001
 43
0.0000000001
 40
-1.5
 40
-1.5
 40
1.5
 40
1.5
 10
255.477230599034
 20
273.1987453790268
 30
-75.84077455021311
 10
255.477230599034
 20
273.1987453790268
 30
-78.84077455021311
  0
SPLINE
  5
11E
330
1F
100
AcDbEntity
  8
bottom box
100
AcDbSpline
210
0.0
220
0.0
230
1.0
 70
    24
 71
     1
 72
     4
 73
     2
 74
     0
 42
0.0000000001
 43
0.0000000001
 40
7.004029295482523
 40
7.004029295482523
 40
8.504029295482521
 40
8.504029295482521
 10
258.8181747787849
 20
238.437420108855
 30
-78.5528940945899
 10
261.1969901379813
 20
240.8162354680513
 30
-78.5528940945899
  0
SPLINE
  5
11F
330
1F
100
AcDbEntity
  8
bottom box
100
AcDbSpline
210
0.0
220
0.0
230
1.0
 70
    24
 71
     1
 72
     4
 73
     2
 74
     0
 42
0.0000000001
 43
0.0000000001
 40
1.55749221587304
 40
1.55749221587304
 40
2.454236985418418
 40
2.454236985418418
 10
260.0075824583831
 20
239.6268277884531
 30
-78.84077455021313
 10
260.0075824583831
 20
239.6268277884531
 30
-78.26501363896668
  0
SPLINE
  5
120
330
1F
100
AcDbEntity
  8
bottom box
100
AcDbSpline
210
0.0
220
0.0
230
1.0
 70
    24
 71
     1
 72
     4
 73
     2
 74
     0
 42
0.0000000001
 43
0.0000000001
 40
-23.28986310815396
 40
-23.28986310815396
 40
-17.39516517817905
 40
-17.39516517817905
 10
243.3068146912653
 20
243.9154061365363
 30
-77.34077455021314
 10
253.0888370916348
 20
253.6974285369058
 30
-77.34077455021308
  0
SPLINE
  5
121
330
1F
100
AcDbEntity
  8
bottom box
100
AcDbSpline
210
0.0
220
0.0
230
1.0
 70
    24
 71
     1
 72
     4
 73
     2
 74
     0
 42
0.0000000001
 43
0.0000000001
 40
1.557492215872949
 40
1.557492215872949
 40
6.229977367413006
 40
6.229977367413006
 10
248.19782589145
 20
248.806417336721
 30
-78.84077455021313
 10
248.19782589145
 20
248.806417336721
 30
-75.84077455021307
  0
SPLINE
  5
122
330
1F
100
AcDbEntity
  8
bottom box
100
AcDbSpline
210
0.0
220
0.0
230
1.0
 70
    12
 71
     2
 72
     8
 73
     5
 74
     0
 42
0.0000000001
 43
0.0000000001
 40
-17.39516517817905
 40
-17.39516517817905
 40
-17.39516517817905
 40
-11.71238899122066
 40
-11.71238899122066
 40
-6.029612804262264
 40
-6.029612804262264
 40
-6.029612804262264
 10
253.0888370916348
 20
253.6974285369058
 30
-77.34077455021311
 41
1.0
 10
255.4676524508312
 20
256.076243896102
 30
-77.34077455021304
 41
0.7071067811865488
 10
257.8464678100275
 20
253.6974285369058
 30
-77.34077455021311
 41
1.0
 10
260.2252831692239
 20
251.3186131777093
 30
-77.34077455021308
 41
0.7071067811865488
 10
257.8464678100275
 20
248.9397978185131
 30
-77.34077455021313
 41
1.0
  0
SPLINE
  5
123
330
1F
100
AcDbEntity
  8
bottom box
100
AcDbSpline
210
0.0
220
0.0
230
1.0
 70
    28
 71
     1
 72
     4
 73
     2
 74
     0
 42
0.0000000001
 43
0.0000000001
 40
1.557492215872943
 40
1.557492215872943
 40
6.22997736741294
 40
6.22997736741294
 10
257.8464678100275
 20
253.6974285369058
 30
-78.84077455021313
 41
1.0
 10
257.8464678100275
 20
253.6974285369058
 30
-75.8407745502131
 41
1.0
  0
SPLINE
  5
124
330
1F
100
AcDbEntity
  8
bottom box
100
AcDbSpline
210
0.0
220
0.0
230
1.0
 70
    24
 71
     1
 72
     4
 73
     2
 74
     0
 42
0.0000000001
 43
0.0000000001
 40
-6.029612804262264
 40
-6.029612804262264
 40
-3.617767682557359
 40
-3.617767682557359
 10
257.8464678100275
 20
248.9397978185131
 30
-77.3407745502131
 10
255.4821200585656
 20
246.531105547467
 30
-77.3407745502131
  0
SPLINE
  5
125
330
1F
100
AcDbEntity
  8
bottom box
100
AcDbSpline
210
0.0
220
0.0
230
1.0
 70
    24
 71
     1
 72
     4
 73
     2
 74
     0
 42
0.0000000001
 43
0.0000000001
 40
1.557492215872966
 40
1.557492215872966
 40
6.229977367412945
 40
6.229977367412945
 10
256.6642939342966
 20
247.73545168299
 30
-78.84077455021311
 10
256.6642939342966
 20
247.73545168299
 30
-75.8407745502131
  0
SPLINE
  5
126
330
1F
100
AcDbEntity
  8
bottom box
100
AcDbSpline
210
0.0
220
0.0
230
1.0
 70
    24
 71
     1
 72
     4
 73
     2
 74
     0
 42
0.0000000001
 43
0.0000000001
 40
-3.617767682557359
 40
-3.617767682557359
 40
-0.9105020232107268
 40
-0.9105020232107268
 10
255.4821200585656
 20
246.531105547467
 30
-77.34077455021311
 10
251.3087823656967
 20
250.7044432403359
 30
-77.34077455021311
  0
SPLINE
  5
127
330
1F
100
AcDbEntity
  8
bottom box
100
AcDbSpline
210
0.0
220
0.0
230
1.0
 70
    24
 71
     1
 72
     4
 73
     2
 74
     0
 42
0.0000000001
 43
0.0000000001
 40
1.557492215872966
 40
1.557492215872966
 40
6.229977367412944
 40
6.229977367412944
 10
253.3954512121311
 20
248.6177743939015
 30
-78.84077455021311
 10
253.3954512121311
 20
248.6177743939015
 30
-75.84077455021311
  0
SPLINE
  5
128
330
1F
100
AcDbEntity
  8
bottom box
100
AcDbSpline
210
0.0
220
0.0
230
1.0
 70
    24
 71
     1
 72
     4
 73
     2
 74
     0
 42
0.0000000001
 43
0.0000000001
 40
-0.9105020232107268
 40
-0.9105020232107268
 40
0.5894979767892714
 40
0.5894979767892714
 10
251.3087823656967
 20
250.7044432403359
 30
-77.3407745502131
 10
248.9299670065004
 20
248.3256278811396
 30
-77.3407745502131
  0
SPLINE
  5
129
330
1F
100
AcDbEntity
  8
bottom box
100
AcDbSpline
210
0.0
220
0.0
230
1.0
 70
    24
 71
     1
 72
     4
 73
     2
 74
     0
 42
0.0000000001
 43
0.0000000001
 40
1.557492215872966
 40
1.557492215872966
 40
6.229977367412955
 40
6.229977367412955
 10
250.1193746860985
 20
249.5150355607377
 30
-78.84077455021311
 10
250.1193746860985
 20
249.5150355607377
 30
-75.8407745502131
  0
SPLINE
  5
12A
330
1F
100
AcDbEntity
  8
bottom box
100
AcDbSpline
210
0.0
220
0.0
230
1.0
 70
    24
 71
     1
 72
     4
 73
     2
 74
     0
 42
0.0000000001
 43
0.0000000001
 40
10.71129495482915
 40
10.71129495482915
 40
12.71129495482915
 40
12.71129495482915
 10
257.7944186383858
 20
244.2188069676468
 30
-77.34077455021313
 10
260.2252831692238
 20
246.5609824593167
 30
-77.34077455021307
  0
SPLINE
  5
12B
330
1F
100
AcDbEntity
  8
bottom box
100
AcDbSpline
210
0.0
220
0.0
230
1.0
 70
    24
 71
     1
 72
     4
 73
     2
 74
     0
 42
0.0000000001
 43
0.0000000001
 40
1.557492215872967
 40
1.557492215872967
 40
6.229977367413007
 40
6.229977367413007
 10
259.0098509038048
 20
245.3898947134818
 30
-78.84077455021313
 10
259.0098509038048
 20
245.3898947134817
 30
-75.84077455021308
  0
SPLINE
  5
12C
330
1F
100
AcDbEntity
  8
bottom box
100
AcDbSpline
210
0.0
220
0.0
230
1.0
 70
    12
 71
     2
 72
     8
 73
     5
 74
     0
 42
0.0000000001
 43
0.0000000001
 40
12.71129495482915
 40
12.71129495482915
 40
12.71129495482915
 40
17.42368393521384
 40
17.42368393521384
 40
22.13607291559853
 40
22.13607291559853
 40
22.13607291559853
 10
260.2252831692238
 20
246.5609824593167
 30
-77.34077455021313
 41
1.0
 10
264.9829138876165
 20
251.3186131777094
 30
-77.34077455021315
 41
0.7071067811865476
 10
260.2252831692238
 20
256.0762438961021
 30
-77.3407745502131
 41
1.0
 10
255.4676524508311
 20
260.8338746144948
 30
-77.34077455021311
 41
0.7071067811865476
 10
250.7100217324384
 20
256.0762438961021
 30
-77.3407745502131
 41
1.0
  0
SPLINE
  5
12D
330
1F
100
AcDbEntity
  8
bottom box
100
AcDbSpline
210
0.0
220
0.0
230
1.0
 70
    28
 71
     1
 72
     4
 73
     2
 74
     0
 42
0.0000000001
 43
0.0000000001
 40
1.557492215872921
 40
1.557492215872921
 40
6.229977367412936
 40
6.229977367412936
 10
260.2252831692238
 20
256.0762438961021
 30
-78.8407745502131
 41
1.0
 10
260.2252831692238
 20
256.0762438961021
 30
-75.84077455021308
 41
1.0
  0
SPLINE
  5
12E
330
1F
100
AcDbEntity
  8
bottom box
100
AcDbSpline
210
0.0
220
0.0
230
1.0
 70
    24
 71
     1
 72
     4
 73
     2
 74
     0
 42
0.0000000001
 43
0.0000000001
 40
22.13607291559853
 40
22.13607291559853
 40
26.01511073747396
 40
26.01511073747396
 10
250.7100217324384
 20
256.0762438961021
 30
-77.34077455021307
 10
238.7719964708489
 20
244.1382186345126
 30
-77.34077455021315
  0
SPLINE
  5
12F
330
1F
100
AcDbEntity
  8
bottom box
100
AcDbSpline
210
0.0
220
0.0
230
1.0
 70
    24
 71
     1
 72
     4
 73
     2
 74
     0
 42
0.0000000001
 43
0.0000000001
 40
1.557492215872918
 40
1.557492215872918
 40
6.229977367413006
 40
6.229977367413006
 10
244.7410091016436
 20
250.1072312653073
 30
-78.84077455021315
 10
244.7410091016436
 20
250.1072312653073
 30
-75.84077455021307
  0
SPLINE
  5
130
330
1F
100
AcDbEntity
  8
bottom box
100
AcDbSpline
210
0.0
220
0.0
230
1.0
 70
    12
 71
     2
 72
     6
 73
     3
 74
     0
 42
0.0000000001
 43
0.0000000001
 40
26.01511073747396
 40
26.01511073747396
 40
26.01511073747396
 40
27.66849562267522
 40
27.66849562267522
 40
27.66849562267522
 10
238.7719964708489
 20
244.1382186345126
 30
-77.34077455021311
 41
1.0
 10
241.073062696793
 20
244.7118228901951
 30
-77.3407745502131
 41
0.9572681607851002
 10
243.3068146912653
 20
243.9154061365363
 30
-77.34077455021311
 41
1.0
  0
SPLINE
  5
131
330
1F
100
AcDbEntity
  8
bottom box
100
AcDbSpline
210
0.0
220
0.0
230
1.0
 70
    28
 71
     1
 72
     4
 73
     2
 74
     0
 42
0.0000000001
 43
0.0000000001
 40
1.557492215873043
 40
1.557492215873043
 40
6.229977367413006
 40
6.229977367413006
 10
241.055866731309
 20
244.3618399300698
 30
-78.84077455021311
 41
0.9786340803925502
 10
241.055866731309
 20
244.3618399300698
 30
-75.84077455021311
 41
0.9786340803925502
  0
SPLINE
  5
132
330
1F
100
AcDbEntity
  8
bottom box
100
AcDbSpline
210
0.0
220
0.0
230
1.0
 70
    24
 71
     1
 72
     4
 73
     2
 74
     0
 42
0.0000000001
 43
0.0000000001
 40
1.450668714979258
 40
1.450668714979258
 40
3.248596391050776
 40
3.248596391050776
 10
259.4957043881836
 20
242.5175212178491
 30
-75.84077455021313
 10
259.4957043881836
 20
242.5175212178491
 30
-78.84077455021313
  0
SPLINE
  5
133
330
1F
100
AcDbEntity
  8
bottom box
100
AcDbSpline
210
0.0
220
0.0
230
1.0
 70
    24
 71
     1
 72
     4
 73
     2
 74
     0
 42
0.0000000001
 43
0.0000000001
 40
0.0
 40
0.0
 40
5.588726072819176
 40
5.588726072819176
 10
257.7944186383858
 20
244.2188069676469
 30
-77.34077455021311
 10
261.1969901379813
 20
240.8162354680513
 30
-77.34077455021313
  0
SPLINE
  5
134
330
1F
100
AcDbEntity
  8
bottom box
100
AcDbSpline
210
0.0
220
0.0
230
1.0
 70
    24
 71
     1
 72
     4
 73
     2
 74
     0
 42
0.0000000001
 43
0.0000000001
 40
0.5993081346146436
 40
0.5993081346146436
 40
0.9443669603247002
 40
0.9443669603247002
 10
253.8740708926426
 20
243.3815239949973
 30
-78.8407745502131
 10
253.8740708926426
 20
243.3815239949973
 30
-78.26501363896664
  0
SPLINE
  5
135
330
1F
100
AcDbEntity
  8
bottom box
100
AcDbSpline
210
0.0
220
0.0
230
1.0
 70
    24
 71
     1
 72
     4
 73
     2
 74
     0
 42
0.0000000001
 43
0.0000000001
 40
0.0
 40
0.0
 40
6.830947029628017
 40
6.830947029628017
 10
248.9299670065004
 20
248.3256278811397
 30
-77.34077455021307
 10
253.0888370916348
 20
244.1667577960052
 30
-77.3407745502131
  0
SPLINE
  5
136
330
1F
100
AcDbEntity
  8
bottom box
100
AcDbSpline
210
0.0
220
0.0
230
1.0
 70
    24
 71
     1
 72
     4
 73
     2
 74
     0
 42
0.0000000001
 43
0.0000000001
 40
10.73815292432969
 40
10.73815292432969
 40
16.24138819624807
 40
16.24138819624807
 10
255.4676524508311
 20
241.7879424368087
 30
-77.3407745502131
 10
258.8181747787849
 20
238.437420108855
 30
-77.34077455021311
  0
LINE
  5
137
330
1F
100
AcDbEntity
  8
bottom box
100
AcDbLine
 10
253.0888370916348
 20
244.1667577960052
 30
-77.05289409458989
 11
255.4676524508311
 21
241.7879424368089
 31
-77.05289409458989
  0
LINE
  5
138
330
1F
100
AcDbEntity
  8
bottom box
100
AcDbLine
 10
254.278244771233
 20
242.9773501164071
 30
-78.26501363896666
 11
254.2782447712329
 21
242.9773501164071
 31
-75.84077455021311
  0
SPLINE
  5
139
330
1F
100
AcDbEntity
  8
bottom box
100
AcDbSpline
210
0.0
220
0.0
230
1.0
 70
    24
 71
     1
 72
     4
 73
     2
 74
     0
 42
0.0000000001
 43
0.0000000001
 40
7.004029295482523
 40
7.004029295482523
 40
8.504029295482521
 40
8.504029295482521
 10
258.8181747787849
 20
238.437420108855
 30
-77.0528940945899
 10
261.1969901379813
 20
240.8162354680513
 30
-77.05289409458987
  0
LINE
  5
13A
330
1F
100
AcDbEntity
  8
bottom box
100
AcDbLine
 10
260.0075824583831
 20
239.6268277884531
 30
-78.26501363896666
 11
260.007582458383
 21
239.6268277884531
 31
-75.84077455021307
  0
SPLINE
  5
13B
330
1F
100
AcDbEntity
  8
bottom box
100
AcDbSpline
210
0.0
220
0.0
230
1.0
 70
    24
 71
     1
 72
     4
 73
     2
 74
     0
 42
0.0000000001
 43
0.0000000001
 40
7.004029295482523
 40
7.004029295482523
 40
8.504029295482521
 40
8.504029295482521
 10
253.5518400072813
 20
239.872129993259
 30
-78.5528940945899
 10
251.173024648085
 20
242.2509453524553
 30
-78.5528940945899
  0
SPLINE
  5
13C
330
1F
100
AcDbEntity
  8
bottom box
100
AcDbSpline
210
0.0
220
0.0
230
1.0
 70
    24
 71
     1
 72
     4
 73
     2
 74
     0
 42
0.0000000001
 43
0.0000000001
 40
1.55749221587304
 40
1.55749221587304
 40
2.454236985418418
 40
2.454236985418418
 10
252.3624323276831
 20
241.0615376728571
 30
-78.84077455021313
 10
252.3624323276831
 20
241.0615376728571
 30
-78.26501363896668
  0
SPLINE
  5
13D
330
1F
100
AcDbEntity
  8
bottom box
100
AcDbSpline
210
0.0
220
0.0
230
1.0
 70
    24
 71
     1
 72
     4
 73
     2
 74
     0
 42
0.0000000001
 43
0.0000000001
 40
-23.28986310815396
 40
-23.28986310815396
 40
-17.39516517817905
 40
-17.39516517817905
 10
248.0738539796001
 20
224.3607699057394
 30
-77.3407745502131
 10
238.2918315792306
 20
234.1427923061089
 30
-77.3407745502131
  0
SPLINE
  5
13E
330
1F
100
AcDbEntity
  8
bottom box
100
AcDbSpline
210
0.0
220
0.0
230
1.0
 70
    24
 71
     1
 72
     4
 73
     2
 74
     0
 42
0.0000000001
 43
0.0000000001
 40
1.557492215873144
 40
1.557492215873144
 40
6.229977367413166
 40
6.229977367413166
 10
243.1828427794153
 20
229.2517811059241
 30
-78.8407745502131
 10
243.1828427794153
 20
229.2517811059241
 30
-75.84077455021307
  0
SPLINE
  5
13F
330
1F
100
AcDbEntity
  8
bottom box
100
AcDbSpline
210
0.0
220
0.0
230
1.0
 70
    12
 71
     2
 72
     8
 73
     5
 74
     0
 42
0.0000000001
 43
0.0000000001
 40
-17.39516517817905
 40
-17.39516517817905
 40
-17.39516517817905
 40
-11.71238899122066
 40
-11.71238899122066
 40
-6.029612804262264
 40
-6.029612804262264
 40
-6.029612804262264
 10
238.2918315792306
 20
234.1427923061089
 30
-77.34077455021314
 41
1.0
 10
235.9130162200342
 20
236.5216076653052
 30
-77.34077455021306
 41
0.7071067811865488
 10
238.2918315792306
 20
238.9004230245016
 30
-77.34077455021308
 41
1.0
 10
240.6706469384269
 20
241.2792383836978
 30
-77.34077455021303
 41
0.7071067811865488
 10
243.0494622976233
 20
238.9004230245016
 30
-77.34077455021308
 41
1.0
  0
SPLINE
  5
140
330
1F
100
AcDbEntity
  8
bottom box
100
AcDbSpline
210
0.0
220
0.0
230
1.0
 70
    28
 71
     1
 72
     4
 73
     2
 74
     0
 42
0.0000000001
 43
0.0000000001
 40
1.55749221587305
 40
1.55749221587305
 40
6.229977367413122
 40
6.229977367413122
 10
238.2918315792306
 20
238.9004230245016
 30
-78.84077455021311
 41
1.0
 10
238.2918315792306
 20
238.9004230245016
 30
-75.84077455021304
 41
1.0
  0
SPLINE
  5
141
330
1F
100
AcDbEntity
  8
bottom box
100
AcDbSpline
210
0.0
220
0.0
230
1.0
 70
    24
 71
     1
 72
     4
 73
     2
 74
     0
 42
0.0000000001
 43
0.0000000001
 40
-6.029612804262264
 40
-6.029612804262264
 40
-3.617767682557359
 40
-3.617767682557359
 10
243.0494622976233
 20
238.9004230245016
 30
-77.3407745502131
 10
245.4581545686693
 20
236.5360752730396
 30
-77.34077455021311
  0
SPLINE
  5
142
330
1F
100
AcDbEntity
  8
bottom box
100
AcDbSpline
210
0.0
220
0.0
230
1.0
 70
    24
 71
     1
 72
     4
 73
     2
 74
     0
 42
0.0000000001
 43
0.0000000001
 40
1.557492215873054
 40
1.557492215873054
 40
6.229977367413055
 40
6.229977367413055
 10
244.2538084331463
 20
237.7182491487706
 30
-78.8407745502131
 10
244.2538084331463
 20
237.7182491487706
 30
-75.8407745502131
  0
SPLINE
  5
143
330
1F
100
AcDbEntity
  8
bottom box
100
AcDbSpline
210
0.0
220
0.0
230
1.0
 70
    24
 71
     1
 72
     4
 73
     2
 74
     0
 42
0.0000000001
 43
0.0000000001
 40
-3.617767682557359
 40
-3.617767682557359
 40
-0.9105020232107268
 40
-0.9105020232107268
 10
245.4581545686693
 20
236.5360752730396
 30
-77.34077455021308
 10
241.2848168758003
 20
232.3627375801707
 30
-77.34077455021311
  0
SPLINE
  5
144
330
1F
100
AcDbEntity
  8
bottom box
100
AcDbSpline
210
0.0
220
0.0
230
1.0
 70
    24
 71
     1
 72
     4
 73
     2
 74
     0
 42
0.0000000001
 43
0.0000000001
 40
1.557492215873062
 40
1.557492215873062
 40
6.229977367413122
 40
6.229977367413122
 10
243.3714857222348
 20
234.4494064266052
 30
-78.84077455021313
 10
243.3714857222348
 20
234.4494064266052
 30
-75.84077455021307
  0
SPLINE
  5
145
330
1F
100
AcDbEntity
  8
bottom box
100
AcDbSpline
210
0.0
220
0.0
230
1.0
 70
    24
 71
     1
 72
     4
 73
     2
 74
     0
 42
0.0000000001
 43
0.0000000001
 40
-0.9105020232107268
 40
-0.9105020232107268
 40
0.589497976789271
 40
0.589497976789271
 10
241.2848168758003
 20
232.3627375801707
 30
-77.3407745502131
 10
243.6636322349967
 20
229.9839222209744
 30
-77.3407745502131
  0
SPLINE
  5
146
330
1F
100
AcDbEntity
  8
bottom box
100
AcDbSpline
210
0.0
220
0.0
230
1.0
 70
    24
 71
     1
 72
     4
 73
     2
 74
     0
 42
0.0000000001
 43
0.0000000001
 40
1.557492215873138
 40
1.557492215873138
 40
6.229977367413132
 40
6.229977367413132
 10
242.4742245553985
 20
231.1733299005726
 30
-78.8407745502131
 10
242.4742245553985
 20
231.1733299005726
 30
-75.84077455021308
  0
SPLINE
  5
147
330
1F
100
AcDbEntity
  8
bottom box
100
AcDbSpline
210
0.0
220
0.0
230
1.0
 70
    24
 71
     1
 72
     4
 73
     2
 74
     0
 42
0.0000000001
 43
0.0000000001
 40
10.71129495482915
 40
10.71129495482915
 40
12.71129495482915
 40
12.71129495482915
 10
247.7704531484895
 20
238.8483738528598
 30
-77.3407745502131
 10
245.4282776568196
 20
241.2792383836979
 30
-77.3407745502131
  0
SPLINE
  5
148
330
1F
100
AcDbEntity
  8
bottom box
100
AcDbSpline
210
0.0
220
0.0
230
1.0
 70
    24
 71
     1
 72
     4
 73
     2
 74
     0
 42
0.0000000001
 43
0.0000000001
 40
1.557492215873052
 40
1.557492215873052
 40
6.229977367413033
 40
6.229977367413033
 10
246.5993654026546
 20
240.0638061182789
 30
-78.84077455021311
 10
246.5993654026546
 20
240.0638061182789
 30
-75.8407745502131
  0
SPLINE
  5
149
330
1F
100
AcDbEntity
  8
bottom box
100
AcDbSpline
210
0.0
220
0.0
230
1.0
 70
    12
 71
     2
 72
     8
 73
     5
 74
     0
 42
0.0000000001
 43
0.0000000001
 40
12.71129495482915
 40
12.71129495482915
 40
12.71129495482915
 40
17.42368393521384
 40
17.42368393521384
 40
22.13607291559853
 40
22.13607291559853
 40
22.13607291559853
 10
245.4282776568196
 20
241.2792383836979
 30
-77.34077455021308
 41
1.0
 10
240.6706469384269
 20
246.0368691020906
 30
-77.34077455021308
 41
0.7071067811865475
 10
235.9130162200342
 20
241.2792383836979
 30
-77.34077455021308
 41
1.0
 10
231.1553855016415
 20
236.5216076653052
 30
-77.34077455021311
 41
0.7071067811865475
 10
235.9130162200342
 20
231.7639769469126
 30
-77.34077455021313
 41
1.0
  0
SPLINE
  5
14A
330
1F
100
AcDbEntity
  8
bottom box
100
AcDbSpline
210
0.0
220
0.0
230
1.0
 70
    28
 71
     1
 72
     4
 73
     2
 74
     0
 42
0.0000000001
 43
0.0000000001
 40
1.557492215873054
 40
1.557492215873054
 40
6.229977367413118
 40
6.229977367413118
 10
235.9130162200342
 20
241.2792383836979
 30
-78.84077455021311
 41
1.0
 10
235.9130162200342
 20
241.2792383836979
 30
-75.84077455021306
 41
1.0
  0
SPLINE
  5
14B
330
1F
100
AcDbEntity
  8
bottom box
100
AcDbSpline
210
0.0
220
0.0
230
1.0
 70
    24
 71
     1
 72
     4
 73
     2
 74
     0
 42
0.0000000001
 43
0.0000000001
 40
22.13607291559853
 40
22.13607291559853
 40
26.01511073747396
 40
26.01511073747396
 10
235.9130162200342
 20
231.7639769469126
 30
-77.34077455021307
 10
247.8510414816238
 20
219.825951685323
 30
-77.3407745502131
  0
SPLINE
  5
14C
330
1F
100
AcDbEntity
  8
bottom box
100
AcDbSpline
210
0.0
220
0.0
230
1.0
 70
    24
 71
     1
 72
     4
 73
     2
 74
     0
 42
0.0000000001
 43
0.0000000001
 40
1.557492215873138
 40
1.557492215873138
 40
6.229977367413171
 40
6.229977367413171
 10
241.882028850829
 20
225.7949643161178
 30
-78.8407745502131
 10
241.882028850829
 20
225.7949643161178
 30
-75.84077455021307
  0
SPLINE
  5
14D
330
1F
100
AcDbEntity
  8
bottom box
100
AcDbSpline
210
0.0
220
0.0
230
1.0
 70
    12
 71
     2
 72
     6
 73
     3
 74
     0
 42
0.0000000001
 43
0.0000000001
 40
26.01511073747396
 40
26.01511073747396
 40
26.01511073747396
 40
27.66849562267522
 40
27.66849562267522
 40
27.66849562267522
 10
247.8510414816238
 20
219.825951685323
 30
-77.3407745502131
 41
1.0
 10
247.2774372259411
 20
222.1270179112671
 30
-77.34077455021307
 41
0.9572681607851004
 10
248.0738539796001
 20
224.3607699057394
 30
-77.3407745502131
 41
1.0
  0
SPLINE
  5
14E
330
1F
100
AcDbEntity
  8
bottom box
100
AcDbSpline
210
0.0
220
0.0
230
1.0
 70
    28
 71
     1
 72
     4
 73
     2
 74
     0
 42
0.0000000001
 43
0.0000000001
 40
1.557492215873182
 40
1.557492215873182
 40
6.229977367413168
 40
6.229977367413168
 10
247.6274201860666
 20
222.1098219457831
 30
-78.84077455021311
 41
0.9786340803925502
 10
247.6274201860665
 20
222.109821945783
 30
-75.84077455021307
 41
0.9786340803925503
  0
SPLINE
  5
14F
330
1F
100
AcDbEntity
  8
bottom box
100
AcDbSpline
210
0.0
220
0.0
230
1.0
 70
    24
 71
     1
 72
     4
 73
     2
 74
     0
 42
0.0000000001
 43
0.0000000001
 40
1.450668714979247
 40
1.450668714979247
 40
3.248596391050774
 40
3.248596391050774
 10
249.4717388982872
 20
240.5496596026576
 30
-75.8407745502131
 10
249.4717388982872
 20
240.5496596026576
 30
-78.84077455021313
  0
SPLINE
  5
150
330
1F
100
AcDbEntity
  8
bottom box
100
AcDbSpline
210
0.0
220
0.0
230
1.0
 70
    24
 71
     1
 72
     4
 73
     2
 74
     0
 42
0.0000000001
 43
0.0000000001
 40
0.0
 40
0.0
 40
5.588726072819177
 40
5.588726072819177
 10
247.7704531484895
 20
238.8483738528599
 30
-77.34077455021311
 10
251.173024648085
 20
242.2509453524553
 30
-77.34077455021311
  0
SPLINE
  5
151
330
1F
100
AcDbEntity
  8
bottom box
100
AcDbSpline
210
0.0
220
0.0
230
1.0
 70
    24
 71
     1
 72
     4
 73
     2
 74
     0
 42
0.0000000001
 43
0.0000000001
 40
7.004029295482523
 40
7.004029295482523
 40
8.504029295482521
 40
8.504029295482521
 10
253.5518400072812
 20
239.8721299932589
 30
-77.0528940945899
 10
251.1730246480849
 20
242.2509453524553
 30
-77.05289409458987
  0
LINE
  5
152
330
1F
100
AcDbEntity
  8
bottom box
100
AcDbLine
 10
252.362432327683
 20
241.0615376728571
 30
-78.26501363896666
 11
252.362432327683
 21
241.0615376728571
 31
-75.84077455021308
  0
LINE
  5
153
330
1F
100
AcDbEntity
  8
bottom box
100
AcDbLine
 10
247.8225023201315
 20
234.1427923061088
 30
-77.0528940945899
 11
250.2013176793279
 21
236.5216076653052
 31
-77.0528940945899
  0
LINE
  5
154
330
1F
100
AcDbEntity
  8
bottom box
100
AcDbLine
 10
249.0119099997297
 20
235.332199985707
 30
-78.26501363896669
 11
249.0119099997297
 21
235.332199985707
 31
-75.84077455021311
  0
SPLINE
  5
155
330
1F
100
AcDbEntity
  8
bottom box
100
AcDbSpline
210
0.0
220
0.0
230
1.0
 70
    24
 71
     1
 72
     4
 73
     2
 74
     0
 42
0.0000000001
 43
0.0000000001
 40
0.5993081346146809
 40
0.5993081346146809
 40
0.9443669603247002
 40
0.9443669603247002
 10
248.607736121139
 20
234.9280261071167
 30
-78.84077455021311
 10
248.607736121139
 20
234.9280261071167
 30
-78.2650136389667
  0
SPLINE
  5
156
330
1F
100
AcDbEntity
  8
bottom box
100
AcDbSpline
210
0.0
220
0.0
230
1.0
 70
    24
 71
     1
 72
     4
 73
     2
 74
     0
 42
0.0000000001
 43
0.0000000001
 40
-0.0000000000000018
 40
-0.0000000000000018
 40
6.830947029628039
 40
6.830947029628039
 10
243.6636322349967
 20
229.9839222209744
 30
-77.34077455021313
 10
247.8225023201312
 20
234.1427923061089
 30
-77.34077455021311
  0
SPLINE
  5
157
330
1F
100
AcDbEntity
  8
bottom box
100
AcDbSpline
210
0.0
220
0.0
230
1.0
 70
    24
 71
     1
 72
     4
 73
     2
 74
     0
 42
0.0000000001
 43
0.0000000001
 40
10.73815292432973
 40
10.73815292432973
 40
16.24138819624809
 40
16.24138819624809
 10
250.2013176793275
 20
236.5216076653052
 30
-77.3407745502131
 10
253.5518400072813
 20
239.872129993259
 30
-77.3407745502131
  0
SPLINE
  5
158
330
1F
100
AcDbEntity
  8
bottom box
100
AcDbSpline
210
0.0
220
0.0
230
1.0
 70
    24
 71
     1
 72
     4
 73
     2
 74
     0
 42
0.0000000001
 43
0.0000000001
 40
7.004029295482523
 40
7.004029295482523
 40
8.504029295482521
 40
8.504029295482521
 10
257.3834648943809
 20
233.1710853373514
 30
-78.5528940945899
 10
259.7622802535772
 20
230.792269978155
 30
-78.5528940945899
  0
SPLINE
  5
159
330
1F
100
AcDbEntity
  8
bottom box
100
AcDbSpline
210
0.0
220
0.0
230
1.0
 70
    24
 71
     1
 72
     4
 73
     2
 74
     0
 42
0.0000000001
 43
0.0000000001
 40
1.557492215873139
 40
1.557492215873139
 40
2.454236985418418
 40
2.454236985418418
 10
258.572872573979
 20
231.9816776577532
 30
-78.8407745502131
 10
258.572872573979
 20
231.9816776577532
 30
-78.26501363896672
  0
SPLINE
  5
15A
330
1F
100
AcDbEntity
  8
bottom box
100
AcDbSpline
210
0.0
220
0.0
230
1.0
 70
    24
 71
     1
 72
     4
 73
     2
 74
     0
 42
0.0000000001
 43
0.0000000001
 40
-23.28986310815396
 40
-23.28986310815396
 40
-17.39516517817905
 40
-17.39516517817905
 10
262.8614509220622
 20
248.682445424871
 30
-77.34077455021307
 10
272.6434733224317
 20
238.9004230245015
 30
-77.34077455021313
  0
SPLINE
  5
15B
330
1F
100
AcDbEntity
  8
bottom box
100
AcDbSpline
210
0.0
220
0.0
230
1.0
 70
    24
 71
     1
 72
     4
 73
     2
 74
     0
 42
0.0000000001
 43
0.0000000001
 40
1.557492215872962
 40
1.557492215872962
 40
6.229977367413033
 40
6.229977367413033
 10
267.7524621222469
 20
243.7914342246862
 30
-78.84077455021313
 10
267.7524621222469
 20
243.7914342246862
 30
-75.84077455021306
  0
SPLINE
  5
15C
330
1F
100
AcDbEntity
  8
bottom box
100
AcDbSpline
210
0.0
220
0.0
230
1.0
 70
    12
 71
     2
 72
     8
 73
     5
 74
     0
 42
0.0000000001
 43
0.0000000001
 40
-17.39516517817905
 40
-17.39516517817905
 40
-17.39516517817905
 40
-11.71238899122066
 40
-11.71238899122066
 40
-6.029612804262264
 40
-6.029612804262264
 40
-6.029612804262264
 10
272.6434733224317
 20
238.9004230245015
 30
-77.34077455021307
 41
1.0
 10
275.0222886816281
 20
236.5216076653051
 30
-77.34077455021303
 41
0.7071067811865488
 10
272.6434733224317
 20
234.1427923061088
 30
-77.34077455021313
 41
1.0
 10
270.2646579632354
 20
231.7639769469124
 30
-77.34077455021307
 41
0.7071067811865488
 10
267.8858426040389
 20
234.1427923061088
 30
-77.34077455021313
 41
1.0
  0
SPLINE
  5
15D
330
1F
100
AcDbEntity
  8
bottom box
100
AcDbSpline
210
0.0
220
0.0
230
1.0
 70
    28
 71
     1
 72
     4
 73
     2
 74
     0
 42
0.0000000001
 43
0.0000000001
 40
1.557492215873054
 40
1.557492215873054
 40
6.229977367413124
 40
6.229977367413124
 10
272.6434733224317
 20
234.1427923061088
 30
-78.84077455021315
 41
1.0
 10
272.6434733224317
 20
234.1427923061088
 30
-75.8407745502131
 41
1.0
  0
SPLINE
  5
15E
330
1F
100
AcDbEntity
  8
bottom box
100
AcDbSpline
210
0.0
220
0.0
230
1.0
 70
    24
 71
     1
 72
     4
 73
     2
 74
     0
 42
0.0000000001
 43
0.0000000001
 40
-6.029612804262264
 40
-6.029612804262264
 40
-3.617767682557359
 40
-3.617767682557359
 10
267.8858426040389
 20
234.1427923061088
 30
-77.34077455021313
 10
265.4771503329929
 20
236.5071400575708
 30
-77.3407745502131
  0
SPLINE
  5
15F
330
1F
100
AcDbEntity
  8
bottom box
100
AcDbSpline
210
0.0
220
0.0
230
1.0
 70
    24
 71
     1
 72
     4
 73
     2
 74
     0
 42
0.0000000001
 43
0.0000000001
 40
1.557492215873062
 40
1.557492215873062
 40
6.229977367413122
 40
6.229977367413122
 10
266.6814964685159
 20
235.3249661818398
 30
-78.84077455021313
 10
266.6814964685159
 20
235.3249661818398
 30
-75.84077455021308
  0
SPLINE
  5
160
330
1F
100
AcDbEntity
  8
bottom box
100
AcDbSpline
210
0.0
220
0.0
230
1.0
 70
    24
 71
     1
 72
     4
 73
     2
 74
     0
 42
0.0000000001
 43
0.0000000001
 40
-3.617767682557359
 40
-3.617767682557359
 40
-0.9105020232107268
 40
-0.9105020232107268
 10
265.4771503329929
 20
236.5071400575708
 30
-77.34077455021313
 10
269.6504880258619
 20
240.6804777504397
 30
-77.3407745502131
  0
SPLINE
  5
161
330
1F
100
AcDbEntity
  8
bottom box
100
AcDbSpline
210
0.0
220
0.0
230
1.0
 70
    24
 71
     1
 72
     4
 73
     2
 74
     0
 42
0.0000000001
 43
0.0000000001
 40
1.557492215873055
 40
1.557492215873055
 40
6.229977367413042
 40
6.229977367413042
 10
267.5638191794274
 20
238.5938089040052
 30
-78.84077455021311
 10
267.5638191794274
 20
238.5938089040052
 30
-75.84077455021311
  0
SPLINE
  5
162
330
1F
100
AcDbEntity
  8
bottom box
100
AcDbSpline
210
0.0
220
0.0
230
1.0
 70
    24
 71
     1
 72
     4
 73
     2
 74
     0
 42
0.0000000001
 43
0.0000000001
 40
-0.9105020232107268
 40
-0.9105020232107268
 40
0.589497976789271
 40
0.589497976789271
 10
269.6504880258619
 20
240.6804777504397
 30
-77.34077455021313
 10
267.2716726666656
 20
243.059293109636
 30
-77.34077455021313
  0
SPLINE
  5
163
330
1F
100
AcDbEntity
  8
bottom box
100
AcDbSpline
210
0.0
220
0.0
230
1.0
 70
    24
 71
     1
 72
     4
 73
     2
 74
     0
 42
0.0000000001
 43
0.0000000001
 40
1.557492215873029
 40
1.557492215873029
 40
6.229977367413033
 40
6.229977367413033
 10
268.4610803462637
 20
241.8698854300379
 30
-78.84077455021313
 10
268.4610803462637
 20
241.8698854300379
 30
-75.8407745502131
  0
SPLINE
  5
164
330
1F
100
AcDbEntity
  8
bottom box
100
AcDbSpline
210
0.0
220
0.0
230
1.0
 70
    24
 71
     1
 72
     4
 73
     2
 74
     0
 42
0.0000000001
 43
0.0000000001
 40
10.71129495482915
 40
10.71129495482915
 40
12.71129495482915
 40
12.71129495482915
 10
263.1648517531727
 20
234.1948414777505
 30
-77.3407745502131
 10
265.5070272448426
 20
231.7639769469125
 30
-77.3407745502131
  0
SPLINE
  5
165
330
1F
100
AcDbEntity
  8
bottom box
100
AcDbSpline
210
0.0
220
0.0
230
1.0
 70
    24
 71
     1
 72
     4
 73
     2
 74
     0
 42
0.0000000001
 43
0.0000000001
 40
1.557492215873139
 40
1.557492215873139
 40
6.229977367413123
 40
6.229977367413123
 10
264.3359394990077
 20
232.9794092123315
 30
-78.8407745502131
 10
264.3359394990077
 20
232.9794092123315
 30
-75.8407745502131
  0
SPLINE
  5
166
330
1F
100
AcDbEntity
  8
bottom box
100
AcDbSpline
210
0.0
220
0.0
230
1.0
 70
    12
 71
     2
 72
     8
 73
     5
 74
     0
 42
0.0000000001
 43
0.0000000001
 40
12.71129495482915
 40
12.71129495482915
 40
12.71129495482915
 40
17.42368393521384
 40
17.42368393521384
 40
22.13607291559853
 40
22.13607291559853
 40
22.13607291559853
 10
265.5070272448426
 20
231.7639769469125
 30
-77.34077455021314
 41
1.0
 10
270.2646579632353
 20
227.0063462285197
 30
-77.34077455021317
 41
0.7071067811865477
 10
275.022288681628
 20
231.7639769469125
 30
-77.34077455021314
 41
1.0
 10
279.7799194000207
 20
236.5216076653052
 30
-77.34077455021311
 41
0.7071067811865477
 10
275.022288681628
 20
241.2792383836979
 30
-77.3407745502131
 41
1.0
  0
SPLINE
  5
167
330
1F
100
AcDbEntity
  8
bottom box
100
AcDbSpline
210
0.0
220
0.0
230
1.0
 70
    28
 71
     1
 72
     4
 73
     2
 74
     0
 42
0.0000000001
 43
0.0000000001
 40
1.557492215873049
 40
1.557492215873049
 40
6.229977367413104
 40
6.229977367413104
 10
275.022288681628
 20
231.7639769469125
 30
-78.84077455021315
 41
1.0
 10
275.022288681628
 20
231.7639769469125
 30
-75.84077455021311
 41
1.0
  0
SPLINE
  5
168
330
1F
100
AcDbEntity
  8
bottom box
100
AcDbSpline
210
0.0
220
0.0
230
1.0
 70
    24
 71
     1
 72
     4
 73
     2
 74
     0
 42
0.0000000001
 43
0.0000000001
 40
22.13607291559853
 40
22.13607291559853
 40
26.01511073747396
 40
26.01511073747396
 10
275.022288681628
 20
241.2792383836978
 30
-77.34077455021311
 10
263.0842634200384
 20
253.2172636452874
 30
-77.34077455021306
  0
SPLINE
  5
169
330
1F
100
AcDbEntity
  8
bottom box
100
AcDbSpline
210
0.0
220
0.0
230
1.0
 70
    24
 71
     1
 72
     4
 73
     2
 74
     0
 42
0.0000000001
 43
0.0000000001
 40
1.557492215872967
 40
1.557492215872967
 40
6.229977367413033
 40
6.229977367413033
 10
269.0532760508332
 20
247.2482510144926
 30
-78.84077455021313
 10
269.0532760508332
 20
247.2482510144926
 30
-75.84077455021307
  0
SPLINE
  5
16A
330
1F
100
AcDbEntity
  8
bottom box
100
AcDbSpline
210
0.0
220
0.0
230
1.0
 70
    12
 71
     2
 72
     6
 73
     3
 74
     0
 42
0.0000000001
 43
0.0000000001
 40
26.01511073747396
 40
26.01511073747396
 40
26.01511073747396
 40
27.66849562267522
 40
27.66849562267522
 40
27.66849562267522
 10
263.0842634200384
 20
253.2172636452874
 30
-77.34077455021311
 41
1.0
 10
263.6578676757211
 20
250.9161974193433
 30
-77.3407745502131
 41
0.9572681607851004
 10
262.8614509220622
 20
248.682445424871
 30
-77.34077455021311
 41
1.0
  0
SPLINE
  5
16B
330
1F
100
AcDbEntity
  8
bottom box
100
AcDbSpline
210
0.0
220
0.0
230
1.0
 70
    28
 71
     1
 72
     4
 73
     2
 74
     0
 42
0.0000000001
 43
0.0000000001
 40
1.557492215872966
 40
1.557492215872966
 40
6.229977367412936
 40
6.229977367412936
 10
263.3078847155957
 20
250.9333933848274
 30
-78.84077455021311
 41
0.9786340803925502
 10
263.3078847155957
 20
250.9333933848274
 30
-75.84077455021308
 41
0.9786340803925503
  0
LINE
  5
16C
330
1F
100
AcDbEntity
  8
bottom box
100
AcDbLine
 10
263.1128025815309
 20
238.9004230245015
 30
-77.0528940945899
 11
260.7339872223346
 21
236.5216076653052
 31
-77.0528940945899
  0
LINE
  5
16D
330
1F
100
AcDbEntity
  8
bottom box
100
AcDbLine
 10
261.9233949019327
 20
237.7110153449033
 30
-78.26501363896669
 11
261.9233949019327
 21
237.7110153449033
 31
-75.84077455021313
  0
SPLINE
  5
16E
330
1F
100
AcDbEntity
  8
bottom box
100
AcDbSpline
210
0.0
220
0.0
230
1.0
 70
    24
 71
     1
 72
     4
 73
     2
 74
     0
 42
0.0000000001
 43
0.0000000001
 40
0.5993081346146756
 40
0.5993081346146756
 40
0.9443669603247002
 40
0.9443669603247002
 10
262.3275687805233
 20
238.1151892234937
 30
-78.84077455021313
 10
262.3275687805233
 20
238.1151892234937
 30
-78.2650136389667
  0
SPLINE
  5
16F
330
1F
100
AcDbEntity
  8
bottom box
100
AcDbSpline
210
0.0
220
0.0
230
1.0
 70
    24
 71
     1
 72
     4
 73
     2
 74
     0
 42
0.0000000001
 43
0.0000000001
 40
0.0
 40
0.0
 40
6.830947029628003
 40
6.830947029628003
 10
267.2716726666656
 20
243.059293109636
 30
-77.3407745502131
 10
263.1128025815311
 20
238.9004230245015
 30
-77.34077455021311
  0
SPLINE
  5
170
330
1F
100
AcDbEntity
  8
bottom box
100
AcDbSpline
210
0.0
220
0.0
230
1.0
 70
    24
 71
     1
 72
     4
 73
     2
 74
     0
 42
0.0000000001
 43
0.0000000001
 40
10.73815292432967
 40
10.73815292432967
 40
16.2413881962481
 40
16.2413881962481
 10
260.7339872223347
 20
236.5216076653052
 30
-77.34077455021313
 10
257.3834648943809
 20
233.1710853373514
 30
-77.34077455021313
  0
SPLINE
  5
171
330
1F
100
AcDbEntity
  8
bottom box
100
AcDbSpline
210
0.0
220
0.0
230
1.0
 70
    24
 71
     1
 72
     4
 73
     2
 74
     0
 42
0.0000000001
 43
0.0000000001
 40
1.450668714979213
 40
1.450668714979213
 40
3.248596391050734
 40
3.248596391050734
 10
261.463566003375
 20
232.4935557279528
 30
-75.8407745502131
 10
261.463566003375
 20
232.4935557279528
 30
-78.8407745502131
  0
SPLINE
  5
172
330
1F
100
AcDbEntity
  8
bottom box
100
AcDbSpline
210
0.0
220
0.0
230
1.0
 70
    24
 71
     1
 72
     4
 73
     2
 74
     0
 42
0.0000000001
 43
0.0000000001
 40
0.0
 40
0.0
 40
5.588726072819124
 40
5.588726072819124
 10
263.1648517531727
 20
234.1948414777505
 30
-77.3407745502131
 10
259.7622802535772
 20
230.792269978155
 30
-77.3407745502131
  0
SPLINE
  5
173
330
1F
100
AcDbEntity
  8
bottom box
100
AcDbSpline
210
0.0
220
0.0
230
1.0
 70
    24
 71
     1
 72
     4
 73
     2
 74
     0
 42
0.0000000001
 43
0.0000000001
 40
7.004029295482523
 40
7.004029295482523
 40
8.504029295482521
 40
8.504029295482521
 10
257.3834648943807
 20
233.1710853373514
 30
-77.05289409459003
 10
259.762280253577
 20
230.792269978155
 30
-77.05289409459003
  0
LINE
  5
174
330
1F
100
AcDbEntity
  8
bottom box
100
AcDbLine
 10
258.5728725739789
 20
231.9816776577532
 30
-78.26501363896682
 11
258.5728725739788
 21
231.9816776577532
 31
-75.84077455021323
  0
SPLINE
  5
175
330
1F
100
AcDbEntity
  8
bottom box
100
AcDbSpline
210
0.0
220
0.0
230
1.0
 70
    24
 71
     1
 72
     4
 73
     2
 74
     0
 42
0.0000000001
 43
0.0000000001
 40
7.004029295482524
 40
7.004029295482524
 40
8.504029295482521
 40
8.504029295482521
 10
252.1171301228773
 20
234.6057952217554
 30
-78.5528940945899
 10
249.7383147636809
 20
232.2269798625591
 30
-78.5528940945899
  0
SPLINE
  5
176
330
1F
100
AcDbEntity
  8
bottom box
100
AcDbSpline
210
0.0
220
0.0
230
1.0
 70
    24
 71
     1
 72
     4
 73
     2
 74
     0
 42
0.0000000001
 43
0.0000000001
 40
1.557492215873132
 40
1.557492215873132
 40
2.454236985418418
 40
2.454236985418418
 10
250.9277224432792
 20
233.4163875421573
 30
-78.84077455021311
 10
250.9277224432792
 20
233.4163875421573
 30
-78.26501363896672
  0
SPLINE
  5
177
330
1F
100
AcDbEntity
  8
bottom box
100
AcDbSpline
210
0.0
220
0.0
230
1.0
 70
    24
 71
     1
 72
     4
 73
     2
 74
     0
 42
0.0000000001
 43
0.0000000001
 40
-23.28986310815396
 40
-23.28986310815396
 40
-17.39516517817905
 40
-17.39516517817905
 10
267.6284902103969
 20
229.1278091940742
 30
-77.34077455021307
 10
257.8464678100274
 20
219.3457867937046
 30
-77.3407745502131
  0
SPLINE
  5
178
330
1F
100
AcDbEntity
  8
bottom box
100
AcDbSpline
210
0.0
220
0.0
230
1.0
 70
    24
 71
     1
 72
     4
 73
     2
 74
     0
 42
0.0000000001
 43
0.0000000001
 40
1.557492215873143
 40
1.557492215873143
 40
6.229977367413166
 40
6.229977367413166
 10
262.7374790102122
 20
224.2367979938894
 30
-78.84077455021308
 10
262.7374790102122
 20
224.2367979938894
 30
-75.84077455021306
  0
SPLINE
  5
179
330
1F
100
AcDbEntity
  8
bottom box
100
AcDbSpline
210
0.0
220
0.0
230
1.0
 70
    12
 71
     2
 72
     8
 73
     5
 74
     0
 42
0.0000000001
 43
0.0000000001
 40
-17.39516517817905
 40
-17.39516517817905
 40
-17.39516517817905
 40
-11.71238899122066
 40
-11.71238899122066
 40
-6.029612804262264
 40
-6.029612804262264
 40
-6.029612804262264
 10
257.8464678100274
 20
219.3457867937046
 30
-77.3407745502131
 41
1.0
 10
255.4676524508311
 20
216.9669714345083
 30
-77.34077455021307
 41
0.7071067811865488
 10
253.0888370916347
 20
219.3457867937046
 30
-77.3407745502131
 41
1.0
 10
250.7100217324384
 20
221.724602152901
 30
-77.34077455021307
 41
0.7071067811865488
 10
253.0888370916347
 20
224.1034175120973
 30
-77.3407745502131
 41
1.0
  0
SPLINE
  5
17A
330
1F
100
AcDbEntity
  8
bottom box
100
AcDbSpline
210
0.0
220
0.0
230
1.0
 70
    28
 71
     1
 72
     4
 73
     2
 74
     0
 42
0.0000000001
 43
0.0000000001
 40
1.557492215873182
 40
1.557492215873182
 40
6.229977367413166
 40
6.229977367413166
 10
253.0888370916347
 20
219.3457867937046
 30
-78.8407745502131
 41
1.0
 10
253.0888370916347
 20
219.3457867937046
 30
-75.84077455021308
 41
1.0
  0
SPLINE
  5
17B
330
1F
100
AcDbEntity
  8
bottom box
100
AcDbSpline
210
0.0
220
0.0
230
1.0
 70
    24
 71
     1
 72
     4
 73
     2
 74
     0
 42
0.0000000001
 43
0.0000000001
 40
-6.029612804262264
 40
-6.029612804262264
 40
-3.617767682557359
 40
-3.617767682557359
 10
253.0888370916347
 20
224.1034175120973
 30
-77.3407745502131
 10
255.4531848430967
 20
226.5121097831434
 30
-77.34077455021307
  0
SPLINE
  5
17C
330
1F
100
AcDbEntity
  8
bottom box
100
AcDbSpline
210
0.0
220
0.0
230
1.0
 70
    24
 71
     1
 72
     4
 73
     2
 74
     0
 42
0.0000000001
 43
0.0000000001
 40
1.557492215873144
 40
1.557492215873144
 40
6.229977367413166
 40
6.229977367413166
 10
254.2710109673657
 20
225.3077636476203
 30
-78.8407745502131
 10
254.2710109673657
 20
225.3077636476203
 30
-75.84077455021307
  0
SPLINE
  5
17D
330
1F
100
AcDbEntity
  8
bottom box
100
AcDbSpline
210
0.0
220
0.0
230
1.0
 70
    24
 71
     1
 72
     4
 73
     2
 74
     0
 42
0.0000000001
 43
0.0000000001
 40
-3.617767682557359
 40
-3.617767682557359
 40
-0.9105020232107268
 40
-0.9105020232107268
 10
255.4531848430967
 20
226.5121097831433
 30
-77.34077455021307
 10
259.6265225359656
 20
222.3387720902745
 30
-77.3407745502131
  0
SPLINE
  5
17E
330
1F
100
AcDbEntity
  8
bottom box
100
AcDbSpline
210
0.0
220
0.0
230
1.0
 70
    24
 71
     1
 72
     4
 73
     2
 74
     0
 42
0.0000000001
 43
0.0000000001
 40
1.557492215873138
 40
1.557492215873138
 40
6.229977367413166
 40
6.229977367413166
 10
257.5398536895312
 20
224.4254409367089
 30
-78.84077455021311
 10
257.5398536895312
 20
224.4254409367089
 30
-75.84077455021307
  0
SPLINE
  5
17F
330
1F
100
AcDbEntity
  8
bottom box
100
AcDbSpline
210
0.0
220
0.0
230
1.0
 70
    24
 71
     1
 72
     4
 73
     2
 74
     0
 42
0.0000000001
 43
0.0000000001
 40
-0.9105020232107268
 40
-0.9105020232107268
 40
0.5894979767892714
 40
0.5894979767892714
 10
259.6265225359656
 20
222.3387720902745
 30
-77.3407745502131
 10
262.005337895162
 20
224.7175874494708
 30
-77.34077455021308
  0
SPLINE
  5
180
330
1F
100
AcDbEntity
  8
bottom box
100
AcDbSpline
210
0.0
220
0.0
230
1.0
 70
    24
 71
     1
 72
     4
 73
     2
 74
     0
 42
0.0000000001
 43
0.0000000001
 40
1.557492215873162
 40
1.557492215873162
 40
6.229977367413166
 40
6.229977367413166
 10
260.8159302155638
 20
223.5281797698726
 30
-78.84077455021311
 10
260.8159302155638
 20
223.5281797698726
 30
-75.84077455021307
  0
SPLINE
  5
181
330
1F
100
AcDbEntity
  8
bottom box
100
AcDbSpline
210
0.0
220
0.0
230
1.0
 70
    24
 71
     1
 72
     4
 73
     2
 74
     0
 42
0.0000000001
 43
0.0000000001
 40
10.71129495482915
 40
10.71129495482915
 40
12.71129495482915
 40
12.71129495482915
 10
253.1408862632764
 20
228.8244083629636
 30
-77.3407745502131
 10
250.7100217324384
 20
226.4822328712937
 30
-77.3407745502131
  0
SPLINE
  5
182
330
1F
100
AcDbEntity
  8
bottom box
100
AcDbSpline
210
0.0
220
0.0
230
1.0
 70
    24
 71
     1
 72
     4
 73
     2
 74
     0
 42
0.0000000001
 43
0.0000000001
 40
1.557492215873138
 40
1.557492215873138
 40
6.229977367413118
 40
6.229977367413118
 10
251.9254539978574
 20
227.6533206171287
 30
-78.8407745502131
 10
251.9254539978574
 20
227.6533206171287
 30
-75.8407745502131
  0
SPLINE
  5
183
330
1F
100
AcDbEntity
  8
bottom box
100
AcDbSpline
210
0.0
220
0.0
230
1.0
 70
    12
 71
     2
 72
     8
 73
     5
 74
     0
 42
0.0000000001
 43
0.0000000001
 40
12.71129495482915
 40
12.71129495482915
 40
12.71129495482915
 40
17.42368393521384
 40
17.42368393521384
 40
22.13607291559853
 40
22.13607291559853
 40
22.13607291559853
 10
250.7100217324384
 20
226.4822328712937
 30
-77.34077455021307
 41
1.0
 10
245.9523910140457
 20
221.724602152901
 30
-77.34077455021314
 41
0.7071067811865476
 10
250.7100217324384
 20
216.9669714345083
 30
-77.34077455021311
 41
1.0
 10
255.4676524508311
 20
212.2093407161156
 30
-77.34077455021318
 41
0.7071067811865476
 10
260.2252831692238
 20
216.9669714345083
 30
-77.34077455021311
 41
1.0
  0
SPLINE
  5
184
330
1F
100
AcDbEntity
  8
bottom box
100
AcDbSpline
210
0.0
220
0.0
230
1.0
 70
    28
 71
     1
 72
     4
 73
     2
 74
     0
 42
0.0000000001
 43
0.0000000001
 40
1.557492215873138
 40
1.557492215873138
 40
6.229977367413184
 40
6.229977367413184
 10
250.7100217324384
 20
216.9669714345083
 30
-78.84077455021313
 41
1.0
 10
250.7100217324384
 20
216.9669714345083
 30
-75.8407745502131
 41
1.0
  0
SPLINE
  5
185
330
1F
100
AcDbEntity
  8
bottom box
100
AcDbSpline
210
0.0
220
0.0
230
1.0
 70
    24
 71
     1
 72
     4
 73
     2
 74
     0
 42
0.0000000001
 43
0.0000000001
 40
22.13607291559853
 40
22.13607291559853
 40
26.01511073747396
 40
26.01511073747396
 10
260.2252831692238
 20
216.9669714345083
 30
-77.34077455021313
 10
272.1633084308133
 20
228.9049966960978
 30
-77.34077455021308
  0
SPLINE
  5
186
330
1F
100
AcDbEntity
  8
bottom box
100
AcDbSpline
210
0.0
220
0.0
230
1.0
 70
    24
 71
     1
 72
     4
 73
     2
 74
     0
 42
0.0000000001
 43
0.0000000001
 40
1.557492215873144
 40
1.557492215873144
 40
6.229977367413184
 40
6.229977367413184
 10
266.1942958000185
 20
222.935984065303
 30
-78.8407745502131
 10
266.1942958000185
 20
222.935984065303
 30
-75.84077455021307
  0
SPLINE
  5
187
330
1F
100
AcDbEntity
  8
bottom box
100
AcDbSpline
210
0.0
220
0.0
230
1.0
 70
    12
 71
     2
 72
     6
 73
     3
 74
     0
 42
0.0000000001
 43
0.0000000001
 40
26.01511073747396
 40
26.01511073747396
 40
26.01511073747396
 40
27.66849562267522
 40
27.66849562267522
 40
27.66849562267522
 10
272.1633084308133
 20
228.9049966960978
 30
-77.3407745502131
 41
1.0
 10
269.8622422048693
 20
228.3313924404153
 30
-77.34077455021308
 41
0.9572681607851001
 10
267.6284902103969
 20
229.1278091940742
 30
-77.3407745502131
 41
1.0
  0
SPLINE
  5
188
330
1F
100
AcDbEntity
  8
bottom box
100
AcDbSpline
210
0.0
220
0.0
230
1.0
 70
    28
 71
     1
 72
     4
 73
     2
 74
     0
 42
0.0000000001
 43
0.0000000001
 40
1.557492215873137
 40
1.557492215873137
 40
6.229977367413122
 40
6.229977367413122
 10
269.8794381703532
 20
228.6813754005406
 30
-78.84077455021308
 41
0.9786340803925502
 10
269.8794381703532
 20
228.6813754005406
 30
-75.84077455021308
 41
0.9786340803925502
  0
SPLINE
  5
189
330
1F
100
AcDbEntity
  8
bottom box
100
AcDbSpline
210
0.0
220
0.0
230
1.0
 70
    24
 71
     1
 72
     4
 73
     2
 74
     0
 42
0.0000000001
 43
0.0000000001
 40
0.599308134614688
 40
0.599308134614688
 40
0.9443669603246956
 40
0.9443669603246956
 10
257.0612340090196
 20
229.6616913356131
 30
-78.84077455021311
 10
257.0612340090196
 20
229.6616913356131
 30
-78.26501363896672
  0
SPLINE
  5
18A
330
1F
100
AcDbEntity
  8
bottom box
100
AcDbSpline
210
0.0
220
0.0
230
1.0
 70
    24
 71
     1
 72
     4
 73
     2
 74
     0
 42
0.0000000001
 43
0.0000000001
 40
-0.0000000000000053
 40
-0.0000000000000053
 40
6.83094702962801
 40
6.83094702962801
 10
262.0053378951619
 20
224.7175874494707
 30
-77.3407745502131
 10
257.8464678100274
 20
228.8764575346053
 30
-77.34077455021308
  0
SPLINE
  5
18B
330
1F
100
AcDbEntity
  8
bottom box
100
AcDbSpline
210
0.0
220
0.0
230
1.0
 70
    24
 71
     1
 72
     4
 73
     2
 74
     0
 42
0.0000000001
 43
0.0000000001
 40
10.73815292432969
 40
10.73815292432969
 40
16.24138819624806
 40
16.24138819624806
 10
255.4676524508311
 20
231.2552728938016
 30
-77.34077455021307
 10
252.1171301228773
 20
234.6057952217554
 30
-77.34077455021307
  0
SPLINE
  5
18C
330
1F
100
AcDbEntity
  8
bottom box
100
AcDbSpline
210
0.0
220
0.0
230
1.0
 70
    24
 71
     1
 72
     4
 73
     2
 74
     0
 42
0.0000000001
 43
0.0000000001
 40
1.450668714979216
 40
1.450668714979216
 40
3.24859639105074
 40
3.24859639105074
 10
251.4396005134787
 20
230.5256941127613
 30
-75.8407745502131
 10
251.4396005134787
 20
230.5256941127613
 30
-78.84077455021311
  0
SPLINE
  5
18D
330
1F
100
AcDbEntity
  8
bottom box
100
AcDbSpline
210
0.0
220
0.0
230
1.0
 70
    24
 71
     1
 72
     4
 73
     2
 74
     0
 42
0.0000000001
 43
0.0000000001
 40
0.0
 40
0.0
 40
5.588726072819166
 40
5.588726072819166
 10
253.1408862632764
 20
228.8244083629636
 30
-77.3407745502131
 10
249.7383147636809
 20
232.2269798625591
 30
-77.3407745502131
  0
SPLINE
  5
18E
330
1F
100
AcDbEntity
  8
bottom box
100
AcDbSpline
210
0.0
220
0.0
230
1.0
 70
    24
 71
     1
 72
     4
 73
     2
 74
     0
 42
0.0000000001
 43
0.0000000001
 40
7.004029295482523
 40
7.004029295482523
 40
8.504029295482521
 40
8.504029295482521
 10
252.1171301228773
 20
234.6057952217554
 30
-77.0528940945899
 10
249.7383147636809
 20
232.2269798625591
 30
-77.05289409458989
  0
LINE
  5
18F
330
1F
100
AcDbEntity
  8
bottom box
100
AcDbLine
 10
250.9277224432791
 20
233.4163875421572
 30
-78.26501363896668
 11
250.927722443279
 21
233.4163875421572
 31
-75.84077455021308
  0
LINE
  5
190
330
1F
100
AcDbEntity
  8
bottom box
100
AcDbLine
 10
257.8464678100274
 20
228.8764575346055
 30
-77.05289409459006
 11
255.4676524508311
 21
231.2552728938018
 31
-77.05289409459006
  0
LINE
  5
191
330
1F
100
AcDbEntity
  8
bottom box
100
AcDbLine
 10
256.6570601304293
 20
230.0658652142037
 30
-78.26501363896688
 11
256.6570601304292
 21
230.0658652142037
 31
-75.84077455021325
  0
LINE
  5
192
330
1F
100
AcDbEntity
  8
bottom box
100
AcDbLine
 10
304.894207418046
 20
235.0000006091524
 30
-75.84077455021311
 11
276.8186500346262
 21
235.0000006091524
 31
-75.84077455021311
  0
LINE
  5
193
330
1F
100
AcDbEntity
  8
bottom box
100
AcDbLine
 10
273.2650307722314
 20
235.0000006091524
 30
-75.84077455021311
 11
267.0125569323604
 21
235.0000006091524
 31
-75.84077455021311
  0
LINE
  5
194
330
1F
100
AcDbEntity
  8
bottom box
100
AcDbLine
 10
259.2123801661818
 20
235.0000006091524
 30
-75.84077455021311
 11
248.6797106231747
 21
235.0000006091524
 31
-75.84077455021311
  0
LINE
  5
195
330
1F
100
AcDbEntity
  8
bottom box
100
AcDbLine
 10
243.922079904782
 20
235.0000006091524
 30
-75.84077455021311
 11
237.670274129431
 21
235.0000006091524
 31
-75.84077455021311
  0
LINE
  5
196
330
1F
100
AcDbEntity
  8
bottom box
100
AcDbLine
 10
234.1166548670362
 20
235.0000006091524
 30
-75.84077455021311
 11
206.0602537800222
 21
235.0000006091523
 31
-75.84077455021311
  0
LINE
  5
197
330
1F
100
AcDbEntity
  8
bottom box
100
AcDbLine
 10
255.4772305990341
 20
273.1987453790268
 30
-75.84077455021313
 11
255.4772305990341
 21
258.0469122468847
 31
-75.84077455021313
  0
LINE
  5
198
330
1F
100
AcDbEntity
  8
bottom box
100
AcDbLine
 10
255.4772305990341
 20
254.6827524859685
 30
-75.84077455021313
 11
255.4772305990341
 21
246.5359950069985
 31
-75.84077455021313
  0
LINE
  5
199
330
1F
100
AcDbEntity
  8
bottom box
100
AcDbLine
 10
255.4772305990341
 20
241.7783642886059
 30
-75.84077455021313
 11
255.4772305990341
 21
231.2456947455987
 31
-75.84077455021311
  0
LINE
  5
19A
330
1F
100
AcDbEntity
  8
bottom box
100
AcDbLine
 10
255.4772305990341
 20
226.488064027206
 30
-75.84077455021311
 11
255.4772305990341
 21
218.3604628446419
 31
-75.84077455021311
  0
LINE
  5
19B
330
1F
100
AcDbEntity
  8
bottom box
100
AcDbLine
 10
255.4772305990341
 20
214.9963030837257
 30
-75.84077455021311
 11
255.4772305990341
 21
196.8012558392778
 31
-75.8407745502131
  0
LINE
  5
19C
330
1F
100
AcDbEntity
  8
bottom box
100
AcDbLine
 10
206.0602537800222
 20
235.0000006091523
 30
-78.84077455021311
 11
234.1166548670362
 21
235.0000006091524
 31
-78.84077455021311
  0
LINE
  5
19D
330
1F
100
AcDbEntity
  8
bottom box
100
AcDbLine
 10
237.670274129431
 20
235.0000006091524
 30
-78.84077455021311
 11
243.922079904782
 21
235.0000006091524
 31
-78.84077455021311
  0
LINE
  5
19E
330
1F
100
AcDbEntity
  8
bottom box
100
AcDbLine
 10
248.6797106231747
 20
235.0000006091524
 30
-78.84077455021311
 11
259.2123801661818
 21
235.0000006091524
 31
-78.84077455021311
  0
LINE
  5
19F
330
1F
100
AcDbEntity
  8
bottom box
100
AcDbLine
 10
267.0125569323604
 20
235.0000006091524
 30
-78.84077455021311
 11
273.2650307722314
 21
235.0000006091524
 31
-78.84077455021311
  0
LINE
  5
1A0
330
1F
100
AcDbEntity
  8
bottom box
100
AcDbLine
 10
276.8186500346262
 20
235.0000006091524
 30
-78.84077455021311
 11
304.894207418046
 21
235.0000006091524
 31
-78.84077455021311
  0
LINE
  5
1A1
330
1F
100
AcDbEntity
  8
bottom box
100
AcDbLine
 10
255.4772305990341
 20
273.1987453790268
 30
-78.84077455021313
 11
255.4772305990341
 21
258.0469122468847
 31
-78.84077455021313
  0
LINE
  5
1A2
330
1F
100
AcDbEntity
  8
bottom box
100
AcDbLine
 10
255.4772305990341
 20
254.6827524859685
 30
-78.84077455021313
 11
255.4772305990341
 21
246.5359950069985
 31
-78.84077455021313
  0
LINE
  5
1A3
330
1F
100
AcDbEntity
  8
bottom box
100
AcDbLine
 10
255.4772305990341
 20
241.7783642886059
 30
-78.84077455021313
 11
255.4772305990341
 21
231.2456947455987
 31
-78.84077455021311
  0
LINE
  5
1A4
330
1F
100
AcDbEntity
  8
bottom box
100
AcDbLine
 10
255.4772305990341
 20
226.488064027206
 30
-78.84077455021311
 11
255.4772305990341
 21
218.3604628446419
 31
-78.84077455021311
  0
LINE
  5
1A5
330
1F
100
AcDbEntity
  8
bottom box
100
AcDbLine
 10
255.4772305990341
 20
214.9963030837257
 30
-78.84077455021311
 11
255.4772305990341
 21
196.8012558392778
 31
-78.8407745502131
  0
LINE
  5
1A6
330
1F
100
AcDbEntity
  8
bottom box
100
AcDbLine
 10
304.894207418046
 20
196.8012558392778
 30
-77.3407745502131
 11
206.0602537800223
 21
196.8012558392778
 31
-77.3407745502131
  0
LINE
  5
1A7
330
1F
100
AcDbEntity
  8
bottom box
100
AcDbLine
 10
255.4772305990341
 20
196.8012558392778
 30
-75.8407745502131
 11
255.4772305990341
 21
196.8012558392778
 31
-78.8407745502131
  0
LINE
  5
1A8
330
1F
100
AcDbEntity
  8
bottom box
100
AcDbLine
 10
304.8942074180459
 20
235.0000006091524
 30
-78.8407745502131
 11
304.8942074180459
 21
235.0000006091524
 31
-75.8407745502131
  0
LINE
  5
1A9
330
1F
100
AcDbEntity
  8
bottom box
100
AcDbLine
 10
304.8942074180459
 20
196.8012558392779
 30
-77.34077455021308
 11
304.8942074180459
 21
273.1987453790269
 31
-77.34077455021311
  0
LINE
  5
1AA
330
1F
100
AcDbEntity
  8
bottom box
100
AcDbLine
 10
206.0602537800222
 20
235.0000006091523
 30
-75.84077455021307
 11
206.0602537800222
 21
235.0000006091523
 31
-78.84077455021313
  0
LINE
  5
1AB
330
1F
100
AcDbEntity
  8
bottom box
100
AcDbLine
 10
206.0602537800222
 20
196.8012558392778
 30
-77.34077455021307
 11
206.0602537800222
 21
273.1987453790268
 31
-77.34077455021314
  0
SPLINE
  5
1AC
330
1F
100
AcDbEntity
  8
bottom box
100
AcDbSpline
210
0.0
220
0.0
230
1.0
 70
    24
 71
     1
 72
     4
 73
     2
 74
     0
 42
0.0000000001
 43
0.0000000001
 40
-26.5
 40
-26.5
 40
0.0
 40
0.0
 10
162.6346849232503
 20
225.9567025733018
 30
-78.84077455021313
 10
126.6346849232503
 20
225.9567025733018
 30
-78.84077455021313
  0
SPLINE
  5
1AD
330
1F
100
AcDbEntity
  8
bottom box
100
AcDbSpline
210
0.0
220
0.0
230
1.0
 70
    24
 71
     1
 72
     4
 73
     2
 74
     0
 42
0.0000000001
 43
0.0000000001
 40
-41.65
 40
-41.65
 40
-26.5
 40
-26.5
 10
162.6346849232503
 20
249.377205578574
 30
-78.84077455021313
 10
162.6346849232503
 20
225.9567025733018
 30
-78.84077455021313
  0
SPLINE
  5
1AE
330
1F
100
AcDbEntity
  8
bottom box
100
AcDbSpline
210
0.0
220
0.0
230
1.0
 70
    24
 71
     1
 72
     4
 73
     2
 74
     0
 42
0.0000000001
 43
0.0000000001
 40
-68.15
 40
-68.15
 40
-41.65
 40
-41.65
 10
126.6346849232503
 20
249.3772055785739
 30
-78.84077455021313
 10
162.6346849232503
 20
249.377205578574
 30
-78.84077455021313
  0
SPLINE
  5
1AF
330
1F
100
AcDbEntity
  8
bottom box
100
AcDbSpline
210
0.0
220
0.0
230
1.0
 70
    24
 71
     1
 72
     4
 73
     2
 74
     0
 42
0.0000000001
 43
0.0000000001
 40
-83.30000000000001
 40
-83.30000000000001
 40
-68.15
 40
-68.15
 10
126.6346849232503
 20
225.9567025733018
 30
-78.84077455021313
 10
126.6346849232503
 20
249.3772055785739
 30
-78.84077455021313
  0
SPLINE
  5
1B0
330
1F
100
AcDbEntity
  8
bottom box
100
AcDbSpline
210
0.0
220
0.0
230
1.0
 70
    24
 71
     1
 72
     4
 73
     2
 74
     0
 42
0.0000000001
 43
0.0000000001
 40
-26.5
 40
-26.5
 40
0.0
 40
0.0
 10
162.6346849232503
 20
225.9567025733018
 30
-75.84077455021313
 10
126.6346849232503
 20
225.9567025733018
 30
-75.84077455021313
  0
SPLINE
  5
1B1
330
1F
100
AcDbEntity
  8
bottom box
100
AcDbSpline
210
0.0
220
0.0
230
1.0
 70
    24
 71
     1
 72
     4
 73
     2
 74
     0
 42
0.0000000001
 43
0.0000000001
 40
-41.65
 40
-41.65
 40
-26.5
 40
-26.5
 10
162.6346849232503
 20
249.377205578574
 30
-75.84077455021313
 10
162.6346849232503
 20
225.9567025733018
 30
-75.84077455021313
  0
SPLINE
  5
1B2
330
1F
100
AcDbEntity
  8
bottom box
100
AcDbSpline
210
0.0
220
0.0
230
1.0
 70
    24
 71
     1
 72
     4
 73
     2
 74
     0
 42
0.0000000001
 43
0.0000000001
 40
-68.15
 40
-68.15
 40
-41.65
 40
-41.65
 10
126.6346849232503
 20
249.377205578574
 30
-75.84077455021313
 10
162.6346849232503
 20
249.377205578574
 30
-75.84077455021313
  0
SPLINE
  5
1B3
330
1F
100
AcDbEntity
  8
bottom box
100
AcDbSpline
210
0.0
220
0.0
230
1.0
 70
    24
 71
     1
 72
     4
 73
     2
 74
     0
 42
0.0000000001
 43
0.0000000001
 40
-83.30000000000001
 40
-83.30000000000001
 40
-68.15
 40
-68.15
 10
126.6346849232503
 20
225.9567025733018
 30
-75.84077455021313
 10
126.6346849232503
 20
249.377205578574
 30
-75.84077455021313
  0
SPLINE
  5
1B4
330
1F
100
AcDbEntity
  8
bottom box
100
AcDbSpline
210
0.0
220
0.0
230
1.0
 70
    24
 71
     1
 72
     4
 73
     2
 74
     0
 42
0.0000000001
 43
0.0000000001
 40
0.3184408179491853
 40
0.3184408179491853
 40
3.318440817949186
 40
3.318440817949186
 10
162.6346849232503
 20
225.9567025733018
 30
-78.84077455021313
 10
162.6346849232503
 20
225.9567025733018
 30
-75.84077455021313
  0
SPLINE
  5
1B5
330
1F
100
AcDbEntity
  8
bottom box
100
AcDbSpline
210
0.0
220
0.0
230
1.0
 70
    24
 71
     1
 72
     4
 73
     2
 74
     0
 42
0.0000000001
 43
0.0000000001
 40
0.3184408179491853
 40
0.3184408179491853
 40
3.318440817949186
 40
3.318440817949186
 10
126.6346849232503
 20
225.9567025733018
 30
-78.84077455021313
 10
126.6346849232503
 20
225.9567025733018
 30
-75.84077455021313
  0
SPLINE
  5
1B6
330
1F
100
AcDbEntity
  8
bottom box
100
AcDbSpline
210
0.0
220
0.0
230
1.0
 70
    24
 71
     1
 72
     4
 73
     2
 74
     0
 42
0.0000000001
 43
0.0000000001
 40
0.3184408179491853
 40
0.3184408179491853
 40
3.318440817949186
 40
3.318440817949186
 10
162.6346849232503
 20
249.377205578574
 30
-78.84077455021313
 10
162.6346849232503
 20
249.377205578574
 30
-75.84077455021313
  0
SPLINE
  5
1B7
330
1F
100
AcDbEntity
  8
bottom box
100
AcDbSpline
210
0.0
220
0.0
230
1.0
 70
    24
 71
     1
 72
     4
 73
     2
 74
     0
 42
0.0000000001
 43
0.0000000001
 40
0.3184408179491853
 40
0.3184408179491853
 40
3.318440817949186
 40
3.318440817949186
 10
126.6346849232503
 20
249.3772055785739
 30
-78.84077455021313
 10
126.6346849232503
 20
249.377205578574
 30
-75.84077455021313
  0
SPLINE
  5
1B8
330
1F
100
AcDbEntity
  8
bottom box
100
AcDbSpline
210
0.0
220
0.0
230
1.0
 70
    24
 71
     1
 72
     4
 73
     2
 74
     0
 42
0.0000000001
 43
0.0000000001
 40
100.0780476684532
 40
100.0780476684532
 40
163.3031010569594
 40
163.3031010569594
 10
194.0602537800222
 20
196.8012558392778
 30
-78.8407745502131
 10
194.0602537800222
 20
273.1987453790267
 30
-78.84077455021313
  0
SPLINE
  5
1B9
330
1F
100
AcDbEntity
  8
bottom box
100
AcDbSpline
210
0.0
220
0.0
230
1.0
 70
    24
 71
     1
 72
     4
 73
     2
 74
     0
 42
0.0000000001
 43
0.0000000001
 40
100.0780476684532
 40
100.0780476684532
 40
163.3031010569594
 40
163.3031010569594
 10
194.0602537800222
 20
196.8012558392778
 30
-75.8407745502131
 10
194.0602537800222
 20
273.1987453790267
 30
-75.84077455021313
  0
SPLINE
  5
1BA
330
1F
100
AcDbEntity
  8
bottom box
100
AcDbSpline
210
0.0
220
0.0
230
1.0
 70
    24
 71
     1
 72
     4
 73
     2
 74
     0
 42
0.0000000001
 43
0.0000000001
 40
-1.5
 40
-1.5
 40
1.5
 40
1.5
 10
194.0602537800222
 20
196.8012558392778
 30
-78.8407745502131
 10
194.0602537800222
 20
196.8012558392778
 30
-75.8407745502131
  0
SPLINE
  5
1BB
330
1F
100
AcDbEntity
  8
bottom box
100
AcDbSpline
210
0.0
220
0.0
230
1.0
 70
    24
 71
     1
 72
     4
 73
     2
 74
     0
 42
0.0000000001
 43
0.0000000001
 40
-1.5
 40
-1.5
 40
1.5
 40
1.5
 10
194.0602537800222
 20
273.1987453790267
 30
-75.84077455021313
 10
194.0602537800222
 20
273.1987453790267
 30
-78.84077455021313
  0
SPLINE
  5
1BC
330
1F
100
AcDbEntity
  8
bottom box
100
AcDbSpline
210
0.0
220
0.0
230
1.0
 70
    24
 71
     1
 72
     4
 73
     2
 74
     0
 42
0.0000000001
 43
0.0000000001
 40
-163.3031010569594
 40
-163.3031010569594
 40
-100.0780476684532
 40
-100.0780476684532
 10
95.22630014199848
 20
273.1987453790267
 30
-78.84077455021313
 10
95.22630014199854
 20
196.8012558392776
 30
-78.8407745502131
  0
SPLINE
  5
1BD
330
1F
100
AcDbEntity
  8
bottom box
100
AcDbSpline
210
0.0
220
0.0
230
1.0
 70
    24
 71
     1
 72
     4
 73
     2
 74
     0
 42
0.0000000001
 43
0.0000000001
 40
-163.3031010569594
 40
-163.3031010569594
 40
-100.0780476684532
 40
-100.0780476684532
 10
95.22630014199848
 20
273.1987453790267
 30
-75.84077455021313
 10
95.22630014199854
 20
196.8012558392776
 30
-75.8407745502131
  0
SPLINE
  5
1BE
330
1F
100
AcDbEntity
  8
bottom box
100
AcDbSpline
210
0.0
220
0.0
230
1.0
 70
    24
 71
     1
 72
     4
 73
     2
 74
     0
 42
0.0000000001
 43
0.0000000001
 40
-1.5
 40
-1.5
 40
1.5
 40
1.5
 10
95.22630014199854
 20
196.8012558392776
 30
-75.8407745502131
 10
95.22630014199854
 20
196.8012558392776
 30
-78.8407745502131
  0
SPLINE
  5
1BF
330
1F
100
AcDbEntity
  8
bottom box
100
AcDbSpline
210
0.0
220
0.0
230
1.0
 70
    24
 71
     1
 72
     4
 73
     2
 74
     0
 42
0.0000000001
 43
0.0000000001
 40
-1.5
 40
-1.5
 40
1.5
 40
1.5
 10
95.22630014199848
 20
273.1987453790267
 30
-78.84077455021313
 10
95.22630014199848
 20
273.1987453790267
 30
-75.84077455021313
  0
SPLINE
  5
1C0
330
1F
100
AcDbEntity
  8
bottom box
100
AcDbSpline
210
0.0
220
0.0
230
1.0
 70
    24
 71
     1
 72
     4
 73
     2
 74
     0
 42
0.0000000001
 43
0.0000000001
 40
97.31578947368435
 40
97.31578947368435
 40
164.6842105263156
 40
164.6842105263156
 10
95.22630014199854
 20
196.8012558392776
 30
-78.8407745502131
 10
194.0602537800222
 20
196.8012558392778
 30
-78.8407745502131
  0
SPLINE
  5
1C1
330
1F
100
AcDbEntity
  8
bottom box
100
AcDbSpline
210
0.0
220
0.0
230
1.0
 70
    24
 71
     1
 72
     4
 73
     2
 74
     0
 42
0.0000000001
 43
0.0000000001
 40
97.31578947368435
 40
97.31578947368435
 40
164.6842105263156
 40
164.6842105263156
 10
95.22630014199848
 20
273.1987453790267
 30
-78.84077455021313
 10
194.0602537800222
 20
273.1987453790267
 30
-78.84077455021313
  0
SPLINE
  5
1C2
330
1F
100
AcDbEntity
  8
bottom box
100
AcDbSpline
210
0.0
220
0.0
230
1.0
 70
    24
 71
     1
 72
     4
 73
     2
 74
     0
 42
0.0000000001
 43
0.0000000001
 40
97.31578947368436
 40
97.31578947368436
 40
164.6842105263156
 40
164.6842105263156
 10
95.22630014199854
 20
196.8012558392776
 30
-75.8407745502131
 10
194.0602537800222
 20
196.8012558392778
 30
-75.8407745502131
  0
SPLINE
  5
1C3
330
1F
100
AcDbEntity
  8
bottom box
100
AcDbSpline
210
0.0
220
0.0
230
1.0
 70
    24
 71
     1
 72
     4
 73
     2
 74
     0
 42
0.0000000001
 43
0.0000000001
 40
97.31578947368436
 40
97.31578947368436
 40
164.6842105263156
 40
164.6842105263156
 10
95.22630014199848
 20
273.1987453790267
 30
-75.84077455021313
 10
194.0602537800222
 20
273.1987453790267
 30
-75.84077455021313
  0
LINE
  5
1C4
330
1F
100
AcDbEntity
  8
bottom box
100
AcDbLine
 10
95.22630014199851
 20
235.0000006091522
 30
-78.84077455021313
 11
126.6346849232504
 21
235.0000006091522
 31
-78.84077455021313
  0
LINE
  5
1C5
330
1F
100
AcDbEntity
  8
bottom box
100
AcDbLine
 10
162.6346849232503
 20
235.0000006091522
 30
-78.84077455021313
 11
194.0602537800223
 21
235.0000006091522
 31
-78.84077455021313
  0
LINE
  5
1C6
330
1F
100
AcDbEntity
  8
bottom box
100
AcDbLine
 10
144.6432769610104
 20
196.8012558392777
 30
-78.84077455021311
 11
144.6432769610104
 21
225.9567025733018
 31
-78.84077455021313
  0
LINE
  5
1C7
330
1F
100
AcDbEntity
  8
bottom box
100
AcDbLine
 10
144.6432769610104
 20
249.377205578574
 30
-78.84077455021313
 11
144.6432769610103
 21
273.1987453790267
 31
-78.84077455021314
  0
LINE
  5
1C8
330
1F
100
AcDbEntity
  8
bottom box
100
AcDbLine
 10
95.22630014199851
 20
235.0000006091522
 30
-75.84077455021313
 11
126.6346849232504
 21
235.0000006091522
 31
-75.84077455021313
  0
LINE
  5
1C9
330
1F
100
AcDbEntity
  8
bottom box
100
AcDbLine
 10
162.6346849232503
 20
235.0000006091522
 30
-75.84077455021313
 11
194.0602537800223
 21
235.0000006091522
 31
-75.84077455021313
  0
LINE
  5
1CA
330
1F
100
AcDbEntity
  8
bottom box
100
AcDbLine
 10
144.6432769610104
 20
196.8012558392777
 30
-75.84077455021311
 11
144.6432769610104
 21
225.9567025733018
 31
-75.84077455021313
  0
LINE
  5
1CB
330
1F
100
AcDbEntity
  8
bottom box
100
AcDbLine
 10
144.6432769610104
 20
249.377205578574
 30
-75.84077455021313
 11
144.6432769610103
 21
273.1987453790267
 31
-75.84077455021314
  0
LINE
  5
1CC
330
1F
100
AcDbEntity
  8
bottom box
100
AcDbLine
 10
95.22630014199854
 20
196.8012558392777
 30
-77.3407745502131
 11
194.0602537800223
 21
196.8012558392777
 31
-77.3407745502131
  0
LINE
  5
1CD
330
1F
100
AcDbEntity
  8
bottom box
100
AcDbLine
 10
144.6432769610104
 20
196.8012558392777
 30
-78.8407745502131
 11
144.6432769610104
 21
196.8012558392777
 31
-75.8407745502131
  0
SPLINE
  5
1CE
330
1F
100
AcDbEntity
  8
bottom box
100
AcDbSpline
210
0.0
220
0.0
230
1.0
 70
    24
 71
     1
 72
     4
 73
     2
 74
     0
 42
0.0000000001
 43
0.0000000001
 40
-49.4255688567719
 40
-49.4255688567719
 40
49.40838478125183
 40
49.40838478125183
 10
194.0602537800222
 20
273.1987453790267
 30
-77.34077455021313
 10
95.22630014199848
 20
273.1987453790267
 30
-77.34077455021313
  0
SPLINE
  5
1CF
330
1F
100
AcDbEntity
  8
bottom box
100
AcDbSpline
210
0.0
220
0.0
230
1.0
 70
    24
 71
     1
 72
     4
 73
     2
 74
     0
 42
0.0000000001
 43
0.0000000001
 40
-1.5
 40
-1.5
 40
1.5
 40
1.5
 10
144.6432769610103
 20
273.1987453790267
 30
-78.84077455021313
 10
144.6432769610103
 20
273.1987453790267
 30
-75.84077455021313
  0
SPLINE
  5
1D0
330
1F
100
AcDbEntity
  8
bottom box
100
AcDbSpline
210
0.0
220
0.0
230
1.0
 70
    24
 71
     1
 72
     4
 73
     2
 74
     0
 42
0.0000000001
 43
0.0000000001
 40
0.0
 40
0.0
 40
26.5
 40
26.5
 10
126.6346849232503
 20
225.9567025733018
 30
-77.34077455021313
 10
162.6346849232503
 20
225.9567025733018
 30
-77.34077455021313
  0
SPLINE
  5
1D1
330
1F
100
AcDbEntity
  8
bottom box
100
AcDbSpline
210
0.0
220
0.0
230
1.0
 70
    24
 71
     1
 72
     4
 73
     2
 74
     0
 42
0.0000000001
 43
0.0000000001
 40
0.3184408179491811
 40
0.3184408179491811
 40
3.318440817949181
 40
3.318440817949181
 10
144.6346849232503
 20
225.9567025733018
 30
-78.84077455021313
 10
144.6346849232503
 20
225.9567025733018
 30
-75.84077455021313
  0
SPLINE
  5
1D2
330
1F
100
AcDbEntity
  8
bottom box
100
AcDbSpline
210
0.0
220
0.0
230
1.0
 70
    24
 71
     1
 72
     4
 73
     2
 74
     0
 42
0.0000000001
 43
0.0000000001
 40
-11.47500000000003
 40
-11.47500000000003
 40
11.47500000000001
 40
11.47500000000001
 10
162.6346849232503
 20
225.9567025733018
 30
-77.34077455021313
 10
162.6346849232503
 20
249.377205578574
 30
-77.34077455021313
  0
SPLINE
  5
1D3
330
1F
100
AcDbEntity
  8
bottom box
100
AcDbSpline
210
0.0
220
0.0
230
1.0
 70
    24
 71
     1
 72
     4
 73
     2
 74
     0
 42
0.0000000001
 43
0.0000000001
 40
-1.5
 40
-1.5
 40
1.5
 40
1.5
 10
162.6346849232503
 20
237.6669540759379
 30
-78.84077455021313
 10
162.6346849232503
 20
237.6669540759379
 30
-75.84077455021313
  0
SPLINE
  5
1D4
330
1F
100
AcDbEntity
  8
bottom box
100
AcDbSpline
210
0.0
220
0.0
230
1.0
 70
    24
 71
     1
 72
     4
 73
     2
 74
     0
 42
0.0000000001
 43
0.0000000001
 40
41.65
 40
41.65
 40
68.15
 40
68.15
 10
162.6346849232503
 20
249.377205578574
 30
-77.34077455021313
 10
126.6346849232503
 20
249.3772055785739
 30
-77.34077455021313
  0
SPLINE
  5
1D5
330
1F
100
AcDbEntity
  8
bottom box
100
AcDbSpline
210
0.0
220
0.0
230
1.0
 70
    24
 71
     1
 72
     4
 73
     2
 74
     0
 42
0.0000000001
 43
0.0000000001
 40
0.3184408179491811
 40
0.3184408179491811
 40
3.318440817949181
 40
3.318440817949181
 10
144.6346849232503
 20
249.377205578574
 30
-78.84077455021313
 10
144.6346849232503
 20
249.377205578574
 30
-75.84077455021313
  0
SPLINE
  5
1D6
330
1F
100
AcDbEntity
  8
bottom box
100
AcDbSpline
210
0.0
220
0.0
230
1.0
 70
    24
 71
     1
 72
     4
 73
     2
 74
     0
 42
0.0000000001
 43
0.0000000001
 40
-11.47500000000003
 40
-11.47500000000003
 40
11.47500000000003
 40
11.47500000000003
 10
126.6346849232503
 20
249.377205578574
 30
-77.34077455021311
 10
126.6346849232503
 20
225.9567025733018
 30
-77.34077455021311
  0
SPLINE
  5
1D7
330
1F
100
AcDbEntity
  8
bottom box
100
AcDbSpline
210
0.0
220
0.0
230
1.0
 70
    24
 71
     1
 72
     4
 73
     2
 74
     0
 42
0.0000000001
 43
0.0000000001
 40
-1.5
 40
-1.5
 40
1.500000000000007
 40
1.500000000000007
 10
126.6346849232503
 20
237.6669540759379
 30
-78.84077455021313
 10
126.6346849232503
 20
237.6669540759379
 30
-75.8407745502131
  0
LINE
  5
1D8
330
1F
100
AcDbEntity
  8
bottom box
100
AcDbLine
 10
194.0602537800222
 20
235.0000006091522
 30
-78.84077455021313
 11
194.0602537800222
 21
235.0000006091522
 31
-75.84077455021313
  0
LINE
  5
1D9
330
1F
100
AcDbEntity
  8
bottom box
100
AcDbLine
 10
194.0602537800222
 20
196.8012558392777
 30
-77.34077455021311
 11
194.0602537800222
 21
273.1987453790267
 31
-77.34077455021314
  0
LINE
  5
1DA
330
1F
100
AcDbEntity
  8
bottom box
100
AcDbLine
 10
95.22630014199851
 20
235.0000006091522
 30
-75.84077455021313
 11
95.22630014199851
 21
235.0000006091522
 31
-78.84077455021313
  0
LINE
  5
1DB
330
1F
100
AcDbEntity
  8
bottom box
100
AcDbLine
 10
95.22630014199854
 20
196.8012558392776
 30
-77.34077455021311
 11
95.22630014199848
 21
273.1987453790267
 31
-77.34077455021314
  0
SPLINE
  5
1DC
330
1F
100
AcDbEntity
  8
bottom box
100
AcDbSpline
210
0.0
220
0.0
230
1.0
 70
    24
 71
     1
 72
     4
 73
     2
 74
     0
 42
0.0000000001
 43
0.0000000001
 40
-104.2978957760296
 40
-104.2978957760296
 40
-101.2978957760297
 40
-101.2978957760297
 10
169.9772298586736
 20
109.30984653752
 30
-78.84077455021307
 10
169.9772298586736
 20
109.30984653752
 30
-75.84077455021313
  0
SPLINE
  5
1DD
330
1F
100
AcDbEntity
  8
bottom box
100
AcDbSpline
210
0.0
220
0.0
230
1.0
 70
    24
 71
     1
 72
     4
 73
     2
 74
     0
 42
0.0000000001
 43
0.0000000001
 40
101.2978957760297
 40
101.2978957760297
 40
104.2978957760297
 40
104.2978957760297
 10
119.0683070484591
 20
109.3098465375199
 30
-75.84077455021307
 10
119.0683070484591
 20
109.3098465375199
 30
-78.84077455021307
  0
SPLINE
  5
1DE
330
1F
100
AcDbEntity
  8
bottom box
100
AcDbSpline
210
0.0
220
0.0
230
1.0
 70
    24
 71
     1
 72
     4
 73
     2
 74
     0
 42
0.0000000001
 43
0.0000000001
 40
8.311271464127572
 40
8.311271464127572
 40
32.91378192437858
 40
32.91378192437858
 10
162.5374829451829
 20
135.30984653752
 30
-78.8407745502131
 10
169.9772298586736
 20
109.30984653752
 30
-78.84077455021307
  0
SPLINE
  5
1DF
330
1F
100
AcDbEntity
  8
bottom box
100
AcDbSpline
210
0.0
220
0.0
230
1.0
 70
    24
 71
     1
 72
     4
 73
     2
 74
     0
 42
0.0000000001
 43
0.0000000001
 40
5.499999999999964
 40
5.499999999999964
 40
25.49999999999997
 40
25.49999999999997
 10
126.5080539619498
 20
135.3098465375199
 30
-78.8407745502131
 10
162.5374829451829
 20
135.30984653752
 30
-78.8407745502131
  0
SPLINE
  5
1E0
330
1F
100
AcDbEntity
  8
bottom box
100
AcDbSpline
210
0.0
220
0.0
230
1.0
 70
    24
 71
     1
 72
     4
 73
     2
 74
     0
 42
0.0000000001
 43
0.0000000001
 40
-32.91378192437858
 40
-32.91378192437858
 40
-8.311271464127572
 40
-8.311271464127572
 10
119.0683070484591
 20
109.3098465375199
 30
-78.84077455021307
 10
126.5080539619498
 20
135.3098465375199
 30
-78.8407745502131
  0
SPLINE
  5
1E1
330
1F
100
AcDbEntity
  8
bottom box
100
AcDbSpline
210
0.0
220
0.0
230
1.0
 70
    24
 71
     1
 72
     4
 73
     2
 74
     0
 42
0.0000000001
 43
0.0000000001
 40
8.311271464127572
 40
8.311271464127572
 40
32.91378192437858
 40
32.91378192437858
 10
162.5374829451829
 20
135.30984653752
 30
-75.8407745502131
 10
169.9772298586736
 20
109.30984653752
 30
-75.84077455021313
  0
SPLINE
  5
1E2
330
1F
100
AcDbEntity
  8
bottom box
100
AcDbSpline
210
0.0
220
0.0
230
1.0
 70
    24
 71
     1
 72
     4
 73
     2
 74
     0
 42
0.0000000001
 43
0.0000000001
 40
5.499999999999979
 40
5.499999999999979
 40
25.49999999999998
 40
25.49999999999998
 10
126.5080539619498
 20
135.3098465375199
 30
-75.8407745502131
 10
162.5374829451829
 20
135.30984653752
 30
-75.8407745502131
  0
SPLINE
  5
1E3
330
1F
100
AcDbEntity
  8
bottom box
100
AcDbSpline
210
0.0
220
0.0
230
1.0
 70
    24
 71
     1
 72
     4
 73
     2
 74
     0
 42
0.0000000001
 43
0.0000000001
 40
-32.91378192437858
 40
-32.91378192437858
 40
-8.311271464127572
 40
-8.311271464127572
 10
119.0683070484591
 20
109.3098465375199
 30
-75.84077455021307
 10
126.5080539619498
 20
135.3098465375199
 30
-75.8407745502131
  0
SPLINE
  5
1E4
330
1F
100
AcDbEntity
  8
bottom box
100
AcDbSpline
210
0.0
220
0.0
230
1.0
 70
    24
 71
     1
 72
     4
 73
     2
 74
     0
 42
0.0000000001
 43
0.0000000001
 40
241.9999999999999
 40
241.9999999999999
 40
253.9181818152175
 40
253.9181818152175
 10
169.9772298586736
 20
109.30984653752
 30
-75.84077455021313
 10
190.8272290616411
 20
109.30984653752
 30
-75.84077455021313
  0
SPLINE
  5
1E5
330
1F
100
AcDbEntity
  8
bottom box
100
AcDbSpline
210
0.0
220
0.0
230
1.0
 70
    24
 71
     1
 72
     4
 73
     2
 74
     0
 42
0.0000000001
 43
0.0000000001
 40
241.9999999999999
 40
241.9999999999999
 40
253.9181818152175
 40
253.9181818152175
 10
169.9772298586736
 20
109.30984653752
 30
-78.84077455021307
 10
190.8272290616411
 20
109.30984653752
 30
-78.84077455021313
  0
LINE
  5
1E6
330
1F
100
AcDbEntity
  8
bottom box
100
AcDbLine
 10
162.5374829451829
 20
135.30984653752
 30
-78.8407745502131
 11
162.5374829451829
 21
135.30984653752
 31
-75.8407745502131
  0
LINE
  5
1E7
330
1F
100
AcDbEntity
  8
bottom box
100
AcDbLine
 10
126.5080539619498
 20
135.3098465375199
 30
-78.8407745502131
 11
126.5080539619498
 21
135.3098465375199
 31
-75.8407745502131
  0
SPLINE
  5
1E8
330
1F
100
AcDbEntity
  8
bottom box
100
AcDbSpline
210
0.0
220
0.0
230
1.0
 70
    24
 71
     1
 72
     4
 73
     2
 74
     0
 42
0.0000000001
 43
0.0000000001
 40
-1.5
 40
-1.5
 40
1.5
 40
1.5
 10
98.29327704918678
 20
109.3098465375199
 30
-75.84077455021307
 10
98.29327704918678
 20
109.3098465375199
 30
-78.84077455021307
  0
SPLINE
  5
1E9
330
1F
100
AcDbEntity
  8
bottom box
100
AcDbSpline
210
0.0
220
0.0
230
1.0
 70
    24
 71
     1
 72
     4
 73
     2
 74
     0
 42
0.0000000001
 43
0.0000000001
 40
-40.31127146412757
 40
-40.31127146412757
 40
36.08621807562145
 40
36.08621807562145
 10
98.29327704918678
 20
109.3098465375199
 30
-78.84077455021307
 10
98.29327704918674
 20
185.707336077269
 30
-78.84077455021307
  0
SPLINE
  5
1EA
330
1F
100
AcDbEntity
  8
bottom box
100
AcDbSpline
210
0.0
220
0.0
230
1.0
 70
    24
 71
     1
 72
     4
 73
     2
 74
     0
 42
0.0000000001
 43
0.0000000001
 40
-36.08621807562145
 40
-36.08621807562145
 40
40.31127146412757
 40
40.31127146412757
 10
190.827229061641
 20
185.707336077269
 30
-78.84077455021315
 10
190.8272290616411
 20
109.30984653752
 30
-78.84077455021313
  0
SPLINE
  5
1EB
330
1F
100
AcDbEntity
  8
bottom box
100
AcDbSpline
210
0.0
220
0.0
230
1.0
 70
    24
 71
     1
 72
     4
 73
     2
 74
     0
 42
0.0000000001
 43
0.0000000001
 40
-40.31127146412757
 40
-40.31127146412757
 40
36.08621807562145
 40
36.08621807562145
 10
98.29327704918678
 20
109.3098465375199
 30
-75.84077455021307
 10
98.29327704918674
 20
185.707336077269
 30
-75.84077455021307
  0
SPLINE
  5
1EC
330
1F
100
AcDbEntity
  8
bottom box
100
AcDbSpline
210
0.0
220
0.0
230
1.0
 70
    24
 71
     1
 72
     4
 73
     2
 74
     0
 42
0.0000000001
 43
0.0000000001
 40
-36.08621807562145
 40
-36.08621807562145
 40
40.31127146412757
 40
40.31127146412757
 10
190.827229061641
 20
185.707336077269
 30
-75.84077455021315
 10
190.8272290616411
 20
109.30984653752
 30
-75.84077455021313
  0
SPLINE
  5
1ED
330
1F
100
AcDbEntity
  8
bottom box
100
AcDbSpline
210
0.0
220
0.0
230
1.0
 70
    24
 71
     1
 72
     4
 73
     2
 74
     0
 42
0.0000000001
 43
0.0000000001
 40
464.0596151339949
 40
464.0596151339949
 40
467.0596151339949
 40
467.0596151339949
 10
98.29327704918674
 20
185.707336077269
 30
-75.84077455021307
 10
98.29327704918674
 20
185.707336077269
 30
-78.84077455021307
  0
SPLINE
  5
1EE
330
1F
100
AcDbEntity
  8
bottom box
100
AcDbSpline
210
0.0
220
0.0
230
1.0
 70
    24
 71
     1
 72
     4
 73
     2
 74
     0
 42
0.0000000001
 43
0.0000000001
 40
-467.059615133995
 40
-467.059615133995
 40
-464.059615133995
 40
-464.059615133995
 10
190.827229061641
 20
185.707336077269
 30
-78.84077455021315
 10
190.827229061641
 20
185.707336077269
 30
-75.84077455021315
  0
SPLINE
  5
1EF
330
1F
100
AcDbEntity
  8
bottom box
100
AcDbSpline
210
0.0
220
0.0
230
1.0
 70
    24
 71
     1
 72
     4
 73
     2
 74
     0
 42
0.0000000001
 43
0.0000000001
 40
-1.5
 40
-1.5
 40
1.499999999999979
 40
1.499999999999979
 10
190.8272290616411
 20
109.30984653752
 30
-78.84077455021313
 10
190.8272290616411
 20
109.30984653752
 30
-75.84077455021313
  0
SPLINE
  5
1F0
330
1F
100
AcDbEntity
  8
bottom box
100
AcDbSpline
210
0.0
220
0.0
230
1.0
 70
    24
 71
     1
 72
     4
 73
     2
 74
     0
 42
0.0000000001
 43
0.0000000001
 40
179.1218705024841
 40
179.1218705024841
 40
221.9999999999999
 40
221.9999999999999
 10
98.29327704918678
 20
109.3098465375199
 30
-75.84077455021307
 10
119.0683070484591
 20
109.3098465375199
 30
-75.84077455021307
  0
SPLINE
  5
1F1
330
1F
100
AcDbEntity
  8
bottom box
100
AcDbSpline
210
0.0
220
0.0
230
1.0
 70
    24
 71
     1
 72
     4
 73
     2
 74
     0
 42
0.0000000001
 43
0.0000000001
 40
179.1211841115897
 40
179.1211841115897
 40
201.9395107720288
 40
201.9395107720288
 10
98.29327704918674
 20
185.707336077269
 30
-75.84077455021307
 10
120.5374829451829
 20
185.707336077269
 30
-75.8407745502131
  0
SPLINE
  5
1F2
330
1F
100
AcDbEntity
  8
bottom box
100
AcDbSpline
210
0.0
220
0.0
230
1.0
 70
    24
 71
     1
 72
     4
 73
     2
 74
     0
 42
0.0000000001
 43
0.0000000001
 40
179.1218705024841
 40
179.1218705024841
 40
221.9999999999999
 40
221.9999999999999
 10
98.29327704918678
 20
109.3098465375199
 30
-78.84077455021307
 10
119.0683070484591
 20
109.3098465375199
 30
-78.84077455021307
  0
SPLINE
  5
1F3
330
1F
100
AcDbEntity
  8
bottom box
100
AcDbSpline
210
0.0
220
0.0
230
1.0
 70
    24
 71
     1
 72
     4
 73
     2
 74
     0
 42
0.0000000001
 43
0.0000000001
 40
179.1211841115897
 40
179.1211841115897
 40
201.9395107720288
 40
201.9395107720288
 10
98.29327704918674
 20
185.707336077269
 30
-78.84077455021307
 10
120.5374829451829
 20
185.707336077269
 30
-78.8407745502131
  0
SPLINE
  5
1F4
330
1F
100
AcDbEntity
  8
bottom box
100
AcDbSpline
210
0.0
220
0.0
230
1.0
 70
    24
 71
     1
 72
     4
 73
     2
 74
     0
 42
0.0000000001
 43
0.0000000001
 40
201.8752001397995
 40
201.8752001397995
 40
204.8752001397995
 40
204.8752001397995
 10
168.5374829451828
 20
185.707336077269
 30
-75.8407745502131
 10
168.5374829451828
 20
185.707336077269
 30
-78.8407745502131
  0
SPLINE
  5
1F5
330
1F
100
AcDbEntity
  8
bottom box
100
AcDbSpline
210
0.0
220
0.0
230
1.0
 70
    24
 71
     1
 72
     4
 73
     2
 74
     0
 42
0.0000000001
 43
0.0000000001
 40
-204.8752001397995
 40
-204.8752001397995
 40
-201.8752001397995
 40
-201.8752001397995
 10
120.5374829451829
 20
185.707336077269
 30
-78.8407745502131
 10
120.5374829451829
 20
185.707336077269
 30
-75.8407745502131
  0
SPLINE
  5
1F6
330
1F
100
AcDbEntity
  8
bottom box
100
AcDbSpline
210
0.0
220
0.0
230
1.0
 70
    24
 71
     1
 72
     4
 73
     2
 74
     0
 42
0.0000000001
 43
0.0000000001
 40
-36.08621807562145
 40
-36.08621807562145
 40
-19.31127146412754
 40
-19.31127146412754
 10
168.5374829451828
 20
185.707336077269
 30
-78.8407745502131
 10
162.5374829451829
 20
170.9323894657751
 30
-78.8407745502131
  0
SPLINE
  5
1F7
330
1F
100
AcDbEntity
  8
bottom box
100
AcDbSpline
210
0.0
220
0.0
230
1.0
 70
    24
 71
     1
 72
     4
 73
     2
 74
     0
 42
0.0000000001
 43
0.0000000001
 40
19.31127146412754
 40
19.31127146412754
 40
36.08621807562145
 40
36.08621807562145
 10
126.5374829451829
 20
170.9323894657751
 30
-78.8407745502131
 10
120.5374829451829
 20
185.707336077269
 30
-78.8407745502131
  0
SPLINE
  5
1F8
330
1F
100
AcDbEntity
  8
bottom box
100
AcDbSpline
210
0.0
220
0.0
230
1.0
 70
    24
 71
     1
 72
     4
 73
     2
 74
     0
 42
0.0000000001
 43
0.0000000001
 40
-18.01471449161654
 40
-18.01471449161654
 40
17.98528550838343
 40
17.98528550838343
 10
162.5374829451829
 20
170.9323894657751
 30
-78.8407745502131
 10
126.5374829451829
 20
170.9323894657751
 30
-78.8407745502131
  0
SPLINE
  5
1F9
330
1F
100
AcDbEntity
  8
bottom box
100
AcDbSpline
210
0.0
220
0.0
230
1.0
 70
    24
 71
     1
 72
     4
 73
     2
 74
     0
 42
0.0000000001
 43
0.0000000001
 40
-36.08621807562145
 40
-36.08621807562145
 40
-19.31127146412754
 40
-19.31127146412754
 10
168.5374829451828
 20
185.707336077269
 30
-75.8407745502131
 10
162.5374829451829
 20
170.9323894657751
 30
-75.8407745502131
  0
SPLINE
  5
1FA
330
1F
100
AcDbEntity
  8
bottom box
100
AcDbSpline
210
0.0
220
0.0
230
1.0
 70
    24
 71
     1
 72
     4
 73
     2
 74
     0
 42
0.0000000001
 43
0.0000000001
 40
19.31127146412754
 40
19.31127146412754
 40
36.08621807562145
 40
36.08621807562145
 10
126.5374829451829
 20
170.9323894657751
 30
-75.8407745502131
 10
120.5374829451829
 20
185.707336077269
 30
-75.8407745502131
  0
SPLINE
  5
1FB
330
1F
100
AcDbEntity
  8
bottom box
100
AcDbSpline
210
0.0
220
0.0
230
1.0
 70
    24
 71
     1
 72
     4
 73
     2
 74
     0
 42
0.0000000001
 43
0.0000000001
 40
-18.01471449161654
 40
-18.01471449161654
 40
17.98528550838343
 40
17.98528550838343
 10
162.5374829451829
 20
170.9323894657751
 30
-75.8407745502131
 10
126.5374829451829
 20
170.9323894657751
 30
-75.8407745502131
  0
SPLINE
  5
1FC
330
1F
100
AcDbEntity
  8
bottom box
100
AcDbSpline
210
0.0
220
0.0
230
1.0
 70
    24
 71
     1
 72
     4
 73
     2
 74
     0
 42
0.0000000001
 43
0.0000000001
 40
231.0236975535823
 40
231.0236975535823
 40
253.8788158884101
 40
253.8788158884101
 10
168.5374829451828
 20
185.707336077269
 30
-75.8407745502131
 10
190.827229061641
 20
185.707336077269
 30
-75.84077455021315
  0
SPLINE
  5
1FD
330
1F
100
AcDbEntity
  8
bottom box
100
AcDbSpline
210
0.0
220
0.0
230
1.0
 70
    24
 71
     1
 72
     4
 73
     2
 74
     0
 42
0.0000000001
 43
0.0000000001
 40
231.0236975535823
 40
231.0236975535823
 40
253.8788158884101
 40
253.8788158884101
 10
168.5374829451828
 20
185.707336077269
 30
-78.8407745502131
 10
190.827229061641
 20
185.707336077269
 30
-78.84077455021315
  0
LINE
  5
1FE
330
1F
100
AcDbEntity
  8
bottom box
100
AcDbLine
 10
162.5374829451829
 20
170.9323894657751
 30
-75.8407745502131
 11
162.5374829451829
 21
170.9323894657751
 31
-78.8407745502131
  0
LINE
  5
1FF
330
1F
100
AcDbEntity
  8
bottom box
100
AcDbLine
 10
126.5374829451829
 20
170.9323894657751
 30
-78.8407745502131
 11
126.5374829451829
 21
170.9323894657751
 31
-75.8407745502131
  0
LINE
  5
200
330
1F
100
AcDbEntity
  8
bottom box
100
AcDbLine
 10
120.5374829451829
 20
185.707336077269
 30
-77.34077455021308
 11
98.29327704918674
 21
185.707336077269
 31
-77.34077455021308
  0
LINE
  5
201
330
1F
100
AcDbEntity
  8
bottom box
100
AcDbLine
 10
109.4153799971848
 20
185.707336077269
 30
-75.84077455021307
 11
109.4153799971848
 21
185.707336077269
 31
-78.8407745502131
  0
SPLINE
  5
202
330
1F
100
AcDbEntity
  8
bottom box
100
AcDbSpline
210
0.0
220
0.0
230
1.0
 70
    24
 71
     1
 72
     4
 73
     2
 74
     0
 42
0.0000000001
 43
0.0000000001
 40
-13.30125523012551
 40
-13.30125523012551
 40
15.6987447698745
 40
15.6987447698745
 10
162.5374829451829
 20
135.30984653752
 30
-77.3407745502131
 10
169.9772298586736
 20
109.30984653752
 30
-77.34077455021307
  0
SPLINE
  5
203
330
1F
100
AcDbEntity
  8
bottom box
100
AcDbSpline
210
0.0
220
0.0
230
1.0
 70
    24
 71
     1
 72
     4
 73
     2
 74
     0
 42
0.0000000001
 43
0.0000000001
 40
-1.5
 40
-1.5
 40
1.5
 40
1.5
 10
166.2573564019283
 20
122.30984653752
 30
-75.84077455021308
 10
166.2573564019283
 20
122.30984653752
 30
-78.84077455021308
  0
LINE
  5
204
330
1F
100
AcDbEntity
  8
bottom box
100
AcDbLine
 10
126.5080539619498
 20
135.3098465375199
 30
-77.3407745502131
 11
162.5374829451829
 21
135.30984653752
 31
-77.3407745502131
  0
LINE
  5
205
330
1F
100
AcDbEntity
  8
bottom box
100
AcDbLine
 10
144.5227684535663
 20
135.30984653752
 30
-75.8407745502131
 11
144.5227684535663
 21
135.30984653752
 31
-78.8407745502131
  0
SPLINE
  5
206
330
1F
100
AcDbEntity
  8
bottom box
100
AcDbSpline
210
0.0
220
0.0
230
1.0
 70
    24
 71
     1
 72
     4
 73
     2
 74
     0
 42
0.0000000001
 43
0.0000000001
 40
-15.6987447698745
 40
-15.6987447698745
 40
13.30125523012551
 40
13.30125523012551
 10
119.0683070484591
 20
109.3098465375199
 30
-77.34077455021307
 10
126.5080539619498
 20
135.3098465375199
 30
-77.3407745502131
  0
SPLINE
  5
207
330
1F
100
AcDbEntity
  8
bottom box
100
AcDbSpline
210
0.0
220
0.0
230
1.0
 70
    24
 71
     1
 72
     4
 73
     2
 74
     0
 42
0.0000000001
 43
0.0000000001
 40
-1.5
 40
-1.5
 40
1.500000000000007
 40
1.500000000000007
 10
122.7881805052045
 20
122.3098465375199
 30
-75.84077455021308
 10
122.7881805052044
 20
122.3098465375199
 30
-78.84077455021308
  0
LINE
  5
208
330
1F
100
AcDbEntity
  8
bottom box
100
AcDbLine
 10
98.29327704918678
 20
109.3098465375199
 30
-77.34077455021307
 11
119.0683070484591
 21
109.3098465375199
 31
-77.34077455021307
  0
LINE
  5
209
330
1F
100
AcDbEntity
  8
bottom box
100
AcDbLine
 10
108.6807920488229
 20
109.3098465375199
 30
-75.84077455021307
 11
108.6807920488229
 21
109.3098465375199
 31
-78.84077455021307
  0
LINE
  5
20A
330
1F
100
AcDbEntity
  8
bottom box
100
AcDbLine
 10
98.29327704918678
 20
147.5085913073945
 30
-78.84077455021308
 11
190.8272290616411
 21
147.5085913073945
 31
-78.84077455021311
  0
LINE
  5
20B
330
1F
100
AcDbEntity
  8
bottom box
100
AcDbLine
 10
144.5602530554139
 20
135.30984653752
 30
-78.8407745502131
 11
144.5602530554139
 21
170.9323894657751
 31
-78.84077455021311
  0
LINE
  5
20C
330
1F
100
AcDbEntity
  8
bottom box
100
AcDbLine
 10
98.29327704918676
 20
147.5085913073945
 30
-75.84077455021308
 11
190.827229061641
 21
147.5085913073945
 31
-75.84077455021311
  0
LINE
  5
20D
330
1F
100
AcDbEntity
  8
bottom box
100
AcDbLine
 10
144.5602530554139
 20
135.30984653752
 30
-75.8407745502131
 11
144.5602530554139
 21
170.9323894657751
 31
-75.84077455021311
  0
LINE
  5
20E
330
1F
100
AcDbEntity
  8
bottom box
100
AcDbLine
 10
169.9772298586737
 20
109.30984653752
 30
-77.3407745502131
 11
190.8272290616411
 21
109.30984653752
 31
-77.34077455021313
  0
LINE
  5
20F
330
1F
100
AcDbEntity
  8
bottom box
100
AcDbLine
 10
180.4022294601574
 20
109.30984653752
 30
-75.84077455021313
 11
180.4022294601574
 21
109.30984653752
 31
-78.84077455021311
  0
SPLINE
  5
210
330
1F
100
AcDbEntity
  8
bottom box
100
AcDbSpline
210
0.0
220
0.0
230
1.0
 70
    24
 71
     1
 72
     4
 73
     2
 74
     0
 42
0.0000000001
 43
0.0000000001
 40
464.059615133995
 40
464.059615133995
 40
467.059615133995
 40
467.059615133995
 10
190.827229061641
 20
147.5085913073945
 30
-75.84077455021314
 10
190.827229061641
 20
147.5085913073945
 30
-78.84077455021314
  0
SPLINE
  5
211
330
1F
100
AcDbEntity
  8
bottom box
100
AcDbSpline
210
0.0
220
0.0
230
1.0
 70
    24
 71
     1
 72
     4
 73
     2
 74
     0
 42
0.0000000001
 43
0.0000000001
 40
-76.39748953974902
 40
-76.39748953974902
 40
0.0
 40
0.0
 10
190.827229061641
 20
109.30984653752
 30
-77.34077455021313
 10
190.827229061641
 20
185.707336077269
 30
-77.34077455021315
  0
SPLINE
  5
212
330
1F
100
AcDbEntity
  8
bottom box
100
AcDbSpline
210
0.0
220
0.0
230
1.0
 70
    24
 71
     1
 72
     4
 73
     2
 74
     0
 42
0.0000000001
 43
0.0000000001
 40
464.0596151339948
 40
464.0596151339948
 40
467.059615133995
 40
467.059615133995
 10
98.29327704918677
 20
147.5085913073945
 30
-75.840774550213
 10
98.29327704918677
 20
147.5085913073945
 30
-78.84077455021311
  0
SPLINE
  5
213
330
1F
100
AcDbEntity
  8
bottom box
100
AcDbSpline
210
0.0
220
0.0
230
1.0
 70
    24
 71
     1
 72
     4
 73
     2
 74
     0
 42
0.0000000001
 43
0.0000000001
 40
-315.1369237082168
 40
-315.1369237082168
 40
-238.7394341684678
 40
-238.7394341684678
 10
98.29327704918674
 20
185.707336077269
 30
-77.34077455021307
 10
98.2932770491868
 20
109.3098465375199
 30
-77.34077455021304
  0
LINE
  5
214
330
1F
100
AcDbEntity
  8
bottom box
100
AcDbLine
 10
190.827229061641
 20
185.707336077269
 30
-77.34077455021313
 11
168.5374829451828
 21
185.707336077269
 31
-77.34077455021313
  0
LINE
  5
215
330
1F
100
AcDbEntity
  8
bottom box
100
AcDbLine
 10
179.6823560034119
 20
185.707336077269
 30
-75.8407745502131
 11
179.6823560034119
 21
185.707336077269
 31
-78.84077455021314
  0
SPLINE
  5
216
330
1F
100
AcDbEntity
  8
bottom box
100
AcDbSpline
210
0.0
220
0.0
230
1.0
 70
    24
 71
     1
 72
     4
 73
     2
 74
     0
 42
0.0000000001
 43
0.0000000001
 40
0.9999999999999212
 40
0.9999999999999212
 40
17.77494661149382
 40
17.77494661149382
 10
168.5374829451828
 20
185.707336077269
 30
-77.3407745502131
 10
162.5374829451829
 20
170.9323894657751
 30
-77.3407745502131
  0
SPLINE
  5
217
330
1F
100
AcDbEntity
  8
bottom box
100
AcDbSpline
210
0.0
220
0.0
230
1.0
 70
    24
 71
     1
 72
     4
 73
     2
 74
     0
 42
0.0000000001
 43
0.0000000001
 40
201.8752001397995
 40
201.8752001397995
 40
204.8752001397995
 40
204.8752001397995
 10
165.5374829451828
 20
178.3198627715221
 30
-75.8407745502131
 10
165.5374829451828
 20
178.3198627715221
 30
-78.8407745502131
  0
SPLINE
  5
218
330
1F
100
AcDbEntity
  8
bottom box
100
AcDbSpline
210
0.0
220
0.0
230
1.0
 70
    24
 71
     1
 72
     4
 73
     2
 74
     0
 42
0.0000000001
 43
0.0000000001
 40
0.0
 40
0.0
 40
16.7749466114939
 40
16.7749466114939
 10
126.5374829451829
 20
170.9323894657751
 30
-77.3407745502131
 10
120.5374829451829
 20
185.707336077269
 30
-77.3407745502131
  0
SPLINE
  5
219
330
1F
100
AcDbEntity
  8
bottom box
100
AcDbSpline
210
0.0
220
0.0
230
1.0
 70
    24
 71
     1
 72
     4
 73
     2
 74
     0
 42
0.0000000001
 43
0.0000000001
 40
201.8752001397995
 40
201.8752001397995
 40
204.8752001397995
 40
204.8752001397995
 10
123.5374829451829
 20
178.319862771522
 30
-75.8407745502131
 10
123.5374829451829
 20
178.319862771522
 30
-78.8407745502131
  0
LINE
  5
21A
330
1F
100
AcDbEntity
  8
bottom box
100
AcDbLine
 10
162.5374829451828
 20
170.9323894657752
 30
-77.3407745502131
 11
126.5374829451829
 21
170.9323894657752
 31
-77.3407745502131
  0
LINE
  5
21B
330
1F
100
AcDbEntity
  8
bottom box
100
AcDbLine
 10
144.5374829451828
 20
170.9323894657752
 30
-75.8407745502131
 11
144.5374829451828
 21
170.9323894657752
 31
-78.8407745502131
  0
SPLINE
  5
21C
330
1F
100
AcDbEntity
  8
bottom box
100
AcDbSpline
210
0.0
220
0.0
230
1.0
 70
    24
 71
     1
 72
     4
 73
     2
 74
     0
 42
0.0000000001
 43
0.0000000001
 40
368.2256614959712
 40
368.2256614959712
 40
371.2256614959712
 40
371.2256614959712
 10
209.1272307969095
 20
185.707336077269
 30
-75.84077455021307
 10
209.1272307969095
 20
185.707336077269
 30
-78.84077455021307
  0
SPLINE
  5
21D
330
1F
100
AcDbEntity
  8
bottom box
100
AcDbSpline
210
0.0
220
0.0
230
1.0
 70
    24
 71
     1
 72
     4
 73
     2
 74
     0
 42
0.0000000001
 43
0.0000000001
 40
-371.2256614959712
 40
-371.2256614959712
 40
-368.2256614959712
 40
-368.2256614959712
 10
301.6611828093638
 20
185.7073360772691
 30
-78.84077455021307
 10
301.6611828093638
 20
185.7073360772691
 30
-75.84077455021307
  0
SPLINE
  5
21E
330
1F
100
AcDbEntity
  8
bottom box
100
AcDbSpline
210
0.0
220
0.0
230
1.0
 70
    24
 71
     1
 72
     4
 73
     2
 74
     0
 42
0.0000000001
 43
0.0000000001
 40
-40.31127146412757
 40
-40.31127146412757
 40
36.08621807562145
 40
36.08621807562145
 10
209.1272307969096
 20
109.30984653752
 30
-75.8407745502131
 10
209.1272307969095
 20
185.707336077269
 30
-75.84077455021307
  0
SPLINE
  5
21F
330
1F
100
AcDbEntity
  8
bottom box
100
AcDbSpline
210
0.0
220
0.0
230
1.0
 70
    24
 71
     1
 72
     4
 73
     2
 74
     0
 42
0.0000000001
 43
0.0000000001
 40
-36.08621807562145
 40
-36.08621807562145
 40
40.31127146412757
 40
40.31127146412757
 10
301.6611828093638
 20
185.7073360772691
 30
-75.84077455021307
 10
301.6611828093638
 20
109.3098465375201
 30
-75.84077455021304
  0
SPLINE
  5
220
330
1F
100
AcDbEntity
  8
bottom box
100
AcDbSpline
210
0.0
220
0.0
230
1.0
 70
    24
 71
     1
 72
     4
 73
     2
 74
     0
 42
0.0000000001
 43
0.0000000001
 40
-40.31127146412757
 40
-40.31127146412757
 40
36.08621807562145
 40
36.08621807562145
 10
209.1272307969096
 20
109.30984653752
 30
-78.84077455021304
 10
209.1272307969095
 20
185.707336077269
 30
-78.84077455021307
  0
SPLINE
  5
221
330
1F
100
AcDbEntity
  8
bottom box
100
AcDbSpline
210
0.0
220
0.0
230
1.0
 70
    24
 71
     1
 72
     4
 73
     2
 74
     0
 42
0.0000000001
 43
0.0000000001
 40
-36.08621807562145
 40
-36.08621807562145
 40
40.31127146412757
 40
40.31127146412757
 10
301.6611828093638
 20
185.7073360772691
 30
-78.84077455021307
 10
301.6611828093638
 20
109.3098465375201
 30
-78.84077455021304
  0
SPLINE
  5
222
330
1F
100
AcDbEntity
  8
bottom box
100
AcDbSpline
210
0.0
220
0.0
230
1.0
 70
    24
 71
     1
 72
     4
 73
     2
 74
     0
 42
0.0000000001
 43
0.0000000001
 40
-1.5
 40
-1.5
 40
1.5
 40
1.5
 10
209.1272307969096
 20
109.30984653752
 30
-78.84077455021304
 10
209.1272307969096
 20
109.30984653752
 30
-75.8407745502131
  0
SPLINE
  5
223
330
1F
100
AcDbEntity
  8
bottom box
100
AcDbSpline
210
0.0
220
0.0
230
1.0
 70
    24
 71
     1
 72
     4
 73
     2
 74
     0
 42
0.0000000001
 43
0.0000000001
 40
-1.5
 40
-1.5
 40
1.5
 40
1.5
 10
301.6611828093638
 20
109.3098465375201
 30
-75.84077455021304
 10
301.6611828093638
 20
109.3098465375201
 30
-78.84077455021304
  0
SPLINE
  5
224
330
1F
100
AcDbEntity
  8
bottom box
100
AcDbSpline
210
0.0
220
0.0
230
1.0
 70
    24
 71
     1
 72
     4
 73
     2
 74
     0
 42
0.0000000001
 43
0.0000000001
 40
179.1211841115897
 40
179.1211841115897
 40
253.8788158884101
 40
253.8788158884101
 10
209.1272307969096
 20
109.30984653752
 30
-78.84077455021304
 10
301.6611828093638
 20
109.3098465375201
 30
-78.84077455021304
  0
SPLINE
  5
225
330
1F
100
AcDbEntity
  8
bottom box
100
AcDbSpline
210
0.0
220
0.0
230
1.0
 70
    24
 71
     1
 72
     4
 73
     2
 74
     0
 42
0.0000000001
 43
0.0000000001
 40
179.1211841115897
 40
179.1211841115897
 40
201.9395107720288
 40
201.9395107720288
 10
209.1272307969095
 20
185.707336077269
 30
-78.84077455021307
 10
231.3714366929057
 20
185.707336077269
 30
-78.84077455021307
  0
SPLINE
  5
226
330
1F
100
AcDbEntity
  8
bottom box
100
AcDbSpline
210
0.0
220
0.0
230
1.0
 70
    24
 71
     1
 72
     4
 73
     2
 74
     0
 42
0.0000000001
 43
0.0000000001
 40
179.1211841115897
 40
179.1211841115897
 40
253.8788158884101
 40
253.8788158884101
 10
209.1272307969096
 20
109.30984653752
 30
-75.8407745502131
 10
301.6611828093638
 20
109.3098465375201
 30
-75.84077455021304
  0
SPLINE
  5
227
330
1F
100
AcDbEntity
  8
bottom box
100
AcDbSpline
210
0.0
220
0.0
230
1.0
 70
    24
 71
     1
 72
     4
 73
     2
 74
     0
 42
0.0000000001
 43
0.0000000001
 40
179.1211841115897
 40
179.1211841115897
 40
201.9395107720289
 40
201.9395107720289
 10
209.1272307969095
 20
185.707336077269
 30
-75.84077455021307
 10
231.3714366929057
 20
185.7073360772691
 30
-75.84077455021307
  0
SPLINE
  5
228
330
1F
100
AcDbEntity
  8
bottom box
100
AcDbSpline
210
0.0
220
0.0
230
1.0
 70
    24
 71
     1
 72
     4
 73
     2
 74
     0
 42
0.0000000001
 43
0.0000000001
 40
-109.0412465017758
 40
-109.0412465017758
 40
-106.0412465017758
 40
-106.0412465017758
 10
279.3714366929056
 20
185.7073360772691
 30
-78.84077455021307
 10
279.3714366929056
 20
185.7073360772691
 30
-75.84077455021307
  0
SPLINE
  5
229
330
1F
100
AcDbEntity
  8
bottom box
100
AcDbSpline
210
0.0
220
0.0
230
1.0
 70
    24
 71
     1
 72
     4
 73
     2
 74
     0
 42
0.0000000001
 43
0.0000000001
 40
106.0412465017758
 40
106.0412465017758
 40
109.0412465017758
 40
109.0412465017758
 10
231.3714366929057
 20
185.7073360772691
 30
-75.84077455021307
 10
231.3714366929057
 20
185.707336077269
 30
-78.84077455021307
  0
SPLINE
  5
22A
330
1F
100
AcDbEntity
  8
bottom box
100
AcDbSpline
210
0.0
220
0.0
230
1.0
 70
    24
 71
     1
 72
     4
 73
     2
 74
     0
 42
0.0000000001
 43
0.0000000001
 40
-36.08621807562145
 40
-36.08621807562145
 40
-19.31127146412754
 40
-19.31127146412754
 10
279.3714366929056
 20
185.7073360772691
 30
-75.84077455021307
 10
273.3714366929056
 20
170.9323894657752
 30
-75.84077455021313
  0
SPLINE
  5
22B
330
1F
100
AcDbEntity
  8
bottom box
100
AcDbSpline
210
0.0
220
0.0
230
1.0
 70
    24
 71
     1
 72
     4
 73
     2
 74
     0
 42
0.0000000001
 43
0.0000000001
 40
19.31127146412754
 40
19.31127146412754
 40
36.08621807562145
 40
36.08621807562145
 10
237.3714366929057
 20
170.9323894657751
 30
-75.84077455021313
 10
231.3714366929057
 20
185.7073360772691
 30
-75.84077455021307
  0
SPLINE
  5
22C
330
1F
100
AcDbEntity
  8
bottom box
100
AcDbSpline
210
0.0
220
0.0
230
1.0
 70
    24
 71
     1
 72
     4
 73
     2
 74
     0
 42
0.0000000001
 43
0.0000000001
 40
-18.01471429704916
 40
-18.01471429704916
 40
17.98528570295078
 40
17.98528570295078
 10
273.3714366929056
 20
170.9323894657752
 30
-75.84077455021313
 10
237.3714366929057
 20
170.9323894657751
 30
-75.84077455021313
  0
SPLINE
  5
22D
330
1F
100
AcDbEntity
  8
bottom box
100
AcDbSpline
210
0.0
220
0.0
230
1.0
 70
    24
 71
     1
 72
     4
 73
     2
 74
     0
 42
0.0000000001
 43
0.0000000001
 40
-36.08621807562145
 40
-36.08621807562145
 40
-19.31127146412754
 40
-19.31127146412754
 10
279.3714366929056
 20
185.7073360772691
 30
-78.84077455021307
 10
273.3714366929056
 20
170.9323894657752
 30
-78.84077455021313
  0
SPLINE
  5
22E
330
1F
100
AcDbEntity
  8
bottom box
100
AcDbSpline
210
0.0
220
0.0
230
1.0
 70
    24
 71
     1
 72
     4
 73
     2
 74
     0
 42
0.0000000001
 43
0.0000000001
 40
19.31127146412754
 40
19.31127146412754
 40
36.08621807562145
 40
36.08621807562145
 10
237.3714366929057
 20
170.9323894657751
 30
-78.84077455021313
 10
231.3714366929057
 20
185.707336077269
 30
-78.84077455021307
  0
SPLINE
  5
22F
330
1F
100
AcDbEntity
  8
bottom box
100
AcDbSpline
210
0.0
220
0.0
230
1.0
 70
    24
 71
     1
 72
     4
 73
     2
 74
     0
 42
0.0000000001
 43
0.0000000001
 40
-18.01471429704917
 40
-18.01471429704917
 40
17.98528570295077
 40
17.98528570295077
 10
273.3714366929056
 20
170.9323894657752
 30
-78.84077455021313
 10
237.3714366929057
 20
170.9323894657751
 30
-78.84077455021313
  0
SPLINE
  5
230
330
1F
100
AcDbEntity
  8
bottom box
100
AcDbSpline
210
0.0
220
0.0
230
1.0
 70
    24
 71
     1
 72
     4
 73
     2
 74
     0
 42
0.0000000001
 43
0.0000000001
 40
231.0236975535823
 40
231.0236975535823
 40
253.8788158884101
 40
253.8788158884101
 10
279.3714366929056
 20
185.7073360772691
 30
-78.84077455021307
 10
301.6611828093638
 20
185.7073360772691
 30
-78.84077455021307
  0
SPLINE
  5
231
330
1F
100
AcDbEntity
  8
bottom box
100
AcDbSpline
210
0.0
220
0.0
230
1.0
 70
    24
 71
     1
 72
     4
 73
     2
 74
     0
 42
0.0000000001
 43
0.0000000001
 40
231.0236975535823
 40
231.0236975535823
 40
253.8788158884101
 40
253.8788158884101
 10
279.3714366929056
 20
185.7073360772691
 30
-75.84077455021307
 10
301.6611828093638
 20
185.7073360772691
 30
-75.84077455021307
  0
LINE
  5
232
330
1F
100
AcDbEntity
  8
bottom box
100
AcDbLine
 10
273.3714366929056
 20
170.9323894657752
 30
-75.84077455021313
 11
273.3714366929056
 21
170.9323894657752
 31
-78.84077455021313
  0
LINE
  5
233
330
1F
100
AcDbEntity
  8
bottom box
100
AcDbLine
 10
237.3714366929057
 20
170.9323894657751
 30
-78.84077455021313
 11
237.3714366929057
 21
170.9323894657751
 31
-75.84077455021313
  0
SPLINE
  5
234
330
1F
100
AcDbEntity
  8
bottom box
100
AcDbSpline
210
0.0
220
0.0
230
1.0
 70
    24
 71
     1
 72
     4
 73
     2
 74
     0
 42
0.0000000001
 43
0.0000000001
 40
368.2256614959712
 40
368.2256614959712
 40
371.2256614959711
 40
371.2256614959711
 10
301.6611828093638
 20
147.5085913073946
 30
-75.84077455021306
 10
301.6611828093638
 20
147.5085913073946
 30
-78.840774550213
  0
SPLINE
  5
235
330
1F
100
AcDbEntity
  8
bottom box
100
AcDbSpline
210
0.0
220
0.0
230
1.0
 70
    24
 71
     1
 72
     4
 73
     2
 74
     0
 42
0.0000000001
 43
0.0000000001
 40
-76.39748953974902
 40
-76.39748953974902
 40
0.0
 40
0.0
 10
301.6611828093638
 20
109.3098465375201
 30
-77.34077455021304
 10
301.6611828093638
 20
185.7073360772691
 30
-77.34077455021307
  0
LINE
  5
236
330
1F
100
AcDbEntity
  8
bottom box
100
AcDbLine
 10
231.3714366929057
 20
185.707336077269
 30
-77.34077455021308
 11
209.1272307969095
 21
185.707336077269
 31
-77.34077455021308
  0
LINE
  5
237
330
1F
100
AcDbEntity
  8
bottom box
100
AcDbLine
 10
220.2493337449076
 20
185.707336077269
 30
-78.84077455021308
 11
220.2493337449076
 21
185.707336077269
 31
-75.84077455021307
  0
LINE
  5
238
330
1F
100
AcDbEntity
  8
bottom box
100
AcDbLine
 10
209.1272307969095
 20
147.5085913073945
 30
-75.84077455021311
 11
301.6611828093638
 21
147.5085913073946
 31
-75.84077455021314
  0
LINE
  5
239
330
1F
100
AcDbEntity
  8
bottom box
100
AcDbLine
 10
255.3942068031367
 20
109.3098465375201
 30
-75.84077455021311
 11
255.3942068031366
 21
170.9323894657752
 31
-75.84077455021314
  0
LINE
  5
23A
330
1F
100
AcDbEntity
  8
bottom box
100
AcDbLine
 10
209.1272307969095
 20
147.5085913073945
 30
-78.84077455021311
 11
301.6611828093638
 21
147.5085913073946
 31
-78.84077455021314
  0
LINE
  5
23B
330
1F
100
AcDbEntity
  8
bottom box
100
AcDbLine
 10
255.3942068031367
 20
109.3098465375201
 30
-78.84077455021311
 11
255.3942068031366
 21
170.9323894657752
 31
-78.84077455021314
  0
LINE
  5
23C
330
1F
100
AcDbEntity
  8
bottom box
100
AcDbLine
 10
209.1272307969096
 20
109.30984653752
 30
-77.34077455021308
 11
301.6611828093639
 21
109.3098465375201
 31
-77.34077455021311
  0
LINE
  5
23D
330
1F
100
AcDbEntity
  8
bottom box
100
AcDbLine
 10
255.3942068031368
 20
109.3098465375201
 30
-78.8407745502131
 11
255.3942068031368
 21
109.3098465375201
 31
-75.8407745502131
  0
SPLINE
  5
23E
330
1F
100
AcDbEntity
  8
bottom box
100
AcDbSpline
210
0.0
220
0.0
230
1.0
 70
    24
 71
     1
 72
     4
 73
     2
 74
     0
 42
0.0000000001
 43
0.0000000001
 40
368.2256614959712
 40
368.2256614959712
 40
371.2256614959712
 40
371.2256614959712
 10
209.1272307969095
 20
147.5085913073945
 30
-75.84077455021306
 10
209.1272307969095
 20
147.5085913073945
 30
-78.84077455021306
  0
SPLINE
  5
23F
330
1F
100
AcDbEntity
  8
bottom box
100
AcDbSpline
210
0.0
220
0.0
230
1.0
 70
    24
 71
     1
 72
     4
 73
     2
 74
     0
 42
0.0000000001
 43
0.0000000001
 40
-315.1369237082168
 40
-315.1369237082168
 40
-238.7394341684679
 40
-238.7394341684679
 10
209.1272307969095
 20
185.707336077269
 30
-77.34077455021307
 10
209.1272307969096
 20
109.30984653752
 30
-77.34077455021304
  0
SPLINE
  5
240
330
1F
100
AcDbEntity
  8
bottom box
100
AcDbSpline
210
0.0
220
0.0
230
1.0
 70
    24
 71
     1
 72
     4
 73
     2
 74
     0
 42
0.0000000001
 43
0.0000000001
 40
0.9999999999999215
 40
0.9999999999999215
 40
17.77494661149382
 40
17.77494661149382
 10
279.3714366929056
 20
185.7073360772691
 30
-77.34077455021306
 10
273.3714366929056
 20
170.9323894657752
 30
-77.34077455021311
  0
SPLINE
  5
241
330
1F
100
AcDbEntity
  8
bottom box
100
AcDbSpline
210
0.0
220
0.0
230
1.0
 70
    24
 71
     1
 72
     4
 73
     2
 74
     0
 42
0.0000000001
 43
0.0000000001
 40
106.0412465017757
 40
106.0412465017757
 40
109.0412465017758
 40
109.0412465017758
 10
276.3714366929056
 20
178.3198627715221
 30
-75.8407745502131
 10
276.3714366929056
 20
178.3198627715221
 30
-78.8407745502131
  0
SPLINE
  5
242
330
1F
100
AcDbEntity
  8
bottom box
100
AcDbSpline
210
0.0
220
0.0
230
1.0
 70
    24
 71
     1
 72
     4
 73
     2
 74
     0
 42
0.0000000001
 43
0.0000000001
 40
0.0
 40
0.0
 40
16.7749466114939
 40
16.7749466114939
 10
237.3714366929057
 20
170.9323894657751
 30
-77.34077455021313
 10
231.3714366929057
 20
185.707336077269
 30
-77.34077455021307
  0
SPLINE
  5
243
330
1F
100
AcDbEntity
  8
bottom box
100
AcDbSpline
210
0.0
220
0.0
230
1.0
 70
    24
 71
     1
 72
     4
 73
     2
 74
     0
 42
0.0000000001
 43
0.0000000001
 40
106.0412465017757
 40
106.0412465017757
 40
109.0412465017758
 40
109.0412465017758
 10
234.3714366929057
 20
178.3198627715221
 30
-75.8407745502131
 10
234.3714366929057
 20
178.3198627715221
 30
-78.8407745502131
  0
LINE
  5
244
330
1F
100
AcDbEntity
  8
bottom box
100
AcDbLine
 10
301.6611828093638
 20
185.7073360772691
 30
-77.34077455021308
 11
279.3714366929057
 21
185.7073360772691
 31
-77.34077455021308
  0
LINE
  5
245
330
1F
100
AcDbEntity
  8
bottom box
100
AcDbLine
 10
290.5163097511347
 20
185.7073360772691
 30
-78.84077455021308
 11
290.5163097511347
 21
185.7073360772691
 31
-75.84077455021308
  0
LINE
  5
246
330
1F
100
AcDbEntity
  8
bottom box
100
AcDbLine
 10
273.3714366929056
 20
170.9323894657752
 30
-77.34077455021304
 11
237.3714366929057
 21
170.9323894657752
 31
-77.34077455021304
  0
LINE
  5
247
330
1F
100
AcDbEntity
  8
bottom box
100
AcDbLine
 10
255.3714366929056
 20
170.9323894657752
 30
-75.84077455021301
 11
255.3714366929056
 21
170.9323894657752
 31
-78.84077455021307
  0
ENDSEC
  0
SECTION
  2
OBJECTS
  0
DICTIONARY
  5
C
330
0
100
AcDbDictionary
281
     1
  3
ACAD_DETAILVIEWSTYLE
350
283
  3
ACAD_GROUP
350
D
  3
ACAD_LAYOUT
350
1A
  3
ACAD_MATERIAL
350
43
  3
ACAD_MLEADERSTYLE
350
5B
  3
ACAD_MLINESTYLE
350
17
  3
ACAD_PLOTSETTINGS
350
19
  3
ACAD_PLOTSTYLENAME
350
E
  3
ACAD_SCALELIST
350
47
  3
ACAD_SECTIONVIEWSTYLE
350
284
  3
ACAD_TABLESTYLE
350
59
  3
ACAD_VISUALSTYLE
350
2A
  3
ACDB_RECOMPOSE_DATA
350
280
  3
AcDbVariableDictionary
350
248
  0
SUN
  5
5D
330
29
100
AcDbSun
 90
        1
290
     0
 63
     7
421
 16777215
 40
1.0
291
     1
 91
  2455826
 92
 54000000
292
     0
 70
     2
 71
   256
280
     1
  0
DICTIONARY
  5
283
102
{ACAD_REACTORS
330
C
102
}
330
C
100
AcDbDictionary
281
     1
  0
DICTIONARY
  5
D
102
{ACAD_REACTORS
330
C
102
}
330
C
100
AcDbDictionary
281
     1
  0
DICTIONARY
  5
1A
102
{ACAD_REACTORS
330
C
102
}
330
C
100
AcDbDictionary
281
     1
  3
Layout1
350
1E
  3
Layout2
350
26
  3
Model
350
22
  0
DICTIONARY
  5
43
102
{ACAD_REACTORS
330
C
102
}
330
C
100
AcDbDictionary
281
     1
  3
ByBlock
350
45
  3
ByLayer
350
44
  3
Global
350
46
  0
DICTIONARY
  5
5B
102
{ACAD_REACTORS
330
C
102
}
330
C
100
AcDbDictionary
281
     1
  3
Standard
350
5C
  0
DICTIONARY
  5
17
102
{ACAD_REACTORS
330
C
102
}
330
C
100
AcDbDictionary
281
     1
  3
Standard
350
18
  0
DICTIONARY
  5
19
102
{ACAD_REACTORS
330
C
102
}
330
C
100
AcDbDictionary
281
     1
  0
ACDBDICTIONARYWDFLT
  5
E
102
{ACAD_REACTORS
330
C
102
}
330
C
100
AcDbDictionary
281
     1
  3
Normal
350
F
100
AcDbDictionaryWithDefault
340
F
  0
DICTIONARY
  5
47
102
{ACAD_REACTORS
330
C
102
}
330
C
100
AcDbDictionary
281
     1
  3
A0
350
48
  3
A1
350
49
  3
A2
350
4A
  3
A3
350
4B
  3
A4
350
4C
  3
A5
350
4D
  3
A6
350
4E
  3
A7
350
4F
  3
A8
350
50
  3
A9
350
51
  3
B1
350
52
  3
B2
350
53
  3
B3
350
54
  3
B4
350
55
  3
B5
350
56
  3
B6
350
57
  3
B7
350
58
  0
DICTIONARY
  5
284
102
{ACAD_REACTORS
330
C
102
}
330
C
100
AcDbDictionary
281
     1
  0
DICTIONARY
  5
59
102
{ACAD_REACTORS
330
C
102
}
330
C
100
AcDbDictionary
281
     1
  3
Standard
350
5A
  0
DICTIONARY
  5
2A
102
{ACAD_REACTORS
330
C
102
}
330
C
100
AcDbDictionary
281
     1
  3
2dWireframe
350
2F
  3
Basic
350
32
  3
Brighten
350
36
  3
ColorChange
350
3A
  3
Conceptual
350
34
  3
Dim
350
35
  3
EdgeColorOff
350
3D
  3
Facepattern
350
39
  3
Flat
350
2B
  3
FlatWithEdges
350
2C
  3
Gouraud
350
2D
  3
GouraudWithEdges
350
2E
  3
Hidden
350
31
  3
JitterOff
350
3B
  3
Linepattern
350
38
  3
OverhangOff
350
3C
  3
Realistic
350
33
  3
Shaded
350
42
  3
Shaded with edges
350
41
  3
Shades of Gray
350
3E
  3
Sketchy
350
3F
  3
Thicken
350
37
  3
Wireframe
350
30
  3
X-Ray
350
40
  0
XRECORD
  5
280
102
{ACAD_REACTORS
330
C
102
}
330
C
100
AcDbXrecord
280
     1
 90
        1
330
5A
  0
DICTIONARY
  5
248
102
{ACAD_REACTORS
330
C
102
}
330
C
100
AcDbDictionary
281
     1
  3
CANNOSCALE
350
249
  3
CMLEADERSTYLE
350
282
  3
CTABLESTYLE
350
281
  3
XCLIPFRAME
350
24A
  0
LAYOUT
  5
1E
102
{ACAD_REACTORS
330
1A
102
}
330
1A
100
AcDbPlotSettings
  1

  2
none_device
  4

  6

 40
0.0
 41
0.0
 42
0.0
 43
0.0
 44
0.0
 45
0.0
 46
0.0
 47
0.0
 48
0.0
 49
0.0
140
0.0
141
0.0
142
1.0
143
1.0
 70
   688
 72
     0
 73
     0
 74
     5
  7

 75
    16
 76
     0
 77
     2
 78
   300
147
1.0
148
0.0
149
0.0
100
AcDbLayout
  1
Layout1
 70
     1
 71
     1
 10
0.0
 20
0.0
 11
12.0
 21
9.0
 12
0.0
 22
0.0
 32
0.0
 14
1.000000000000000E+20
 24
1.000000000000000E+20
 34
1.000000000000000E+20
 15
-1.000000000000000E+20
 25
-1.000000000000000E+20
 35
-1.000000000000000E+20
146
0.0
 13
0.0
 23
0.0
 33
0.0
 16
1.0
 26
0.0
 36
0.0
 17
0.0
 27
1.0
 37
0.0
 76
     0
330
1B
  0
LAYOUT
  5
26
102
{ACAD_REACTORS
330
1A
102
}
330
1A
100
AcDbPlotSettings
  1

  2
none_device
  4

  6

 40
0.0
 41
0.0
 42
0.0
 43
0.0
 44
0.0
 45
0.0
 46
0.0
 47
0.0
 48
0.0
 49
0.0
140
0.0
141
0.0
142
1.0
143
1.0
 70
   688
 72
     0
 73
     0
 74
     5
  7

 75
    16
 76
     0
 77
     2
 78
   300
147
1.0
148
0.0
149
0.0
100
AcDbLayout
  1
Layout2
 70
     1
 71
     2
 10
0.0
 20
0.0
 11
0.0
 21
0.0
 12
0.0
 22
0.0
 32
0.0
 14
0.0
 24
0.0
 34
0.0
 15
0.0
 25
0.0
 35
0.0
146
0.0
 13
0.0
 23
0.0
 33
0.0
 16
1.0
 26
0.0
 36
0.0
 17
0.0
 27
1.0
 37
0.0
 76
     0
330
23
  0
LAYOUT
  5
22
102
{ACAD_REACTORS
330
1A
102
}
330
1A
100
AcDbPlotSettings
  1

  2
none_device
  4
Letter_(8.50_x_11.00_Inches)
  6

 40
6.35
 41
6.35
 42
6.35000508
 43
6.35000508
 44
215.9
 45
279.4
 46
0.0
 47
0.0
 48
0.0
 49
0.0
140
0.0
141
0.0
142
1.0
143
1.0
 70
  1712
 72
     0
 73
     0
 74
     0
  7

 75
     0
 76
     0
 77
     2
 78
   300
147
1.0
148
0.0
149
0.0
100
AcDbLayout
  1
Model
 70
     1
 71
     0
 10
0.0
 20
0.0
 11
12.0
 21
9.0
 12
0.0
 22
0.0
 32
0.0
 14
95.22630014199848
 24
109.3098465375199
 34
-78.84077455021315
 15
304.894207418046
 25
273.1987453790269
 35
-75.840774550213
146
0.0
 13
0.0
 23
0.0
 33
0.0
 16
1.0
 26
0.0
 36
0.0
 17
0.0
 27
1.0
 37
0.0
 76
     0
330
1F
331
29
  0
MATERIAL
  5
45
102
{ACAD_REACTORS
330
43
102
}
330
43
100
AcDbMaterial
  1
ByBlock
 72
     1
 94
      127
  0
MATERIAL
  5
44
102
{ACAD_REACTORS
330
43
102
}
330
43
100
AcDbMaterial
  1
ByLayer
 72
     1
 94
      127
  0
MATERIAL
  5
46
102
{ACAD_REACTORS
330
43
102
}
330
43
100
AcDbMaterial
  1
Global
 72
     1
 94
      127
  0
MLEADERSTYLE
  5
5C
102
{ACAD_REACTORS
330
5B
102
}
102
{ACAD_XDICTIONARY
360
27E
102
}
330
5B
100
AcDbMLeaderStyle
170
     2
171
     1
172
     0
 90
        2
 40
0.0
 41
0.0
173
     1
 91
-1056964608
340
14
 92
       -2
290
     1
 42
0.09
291
     1
 43
0.36
  3
Standard
341
0
 44
0.18
300

342
11
174
     1
178
     6
175
     1
176
     0
 93
-1056964608
 45
0.18
292
     0
297
     0
 46
0.18
343
0
 94
-1056964608
 47
1.0
 49
1.0
140
1.0
293
     1
141
0.0
294
     1
177
     0
142
1.0
295
     0
296
     0
143
0.125
1001
ACAD_MLEADERVER
1070
     2
  0
MLINESTYLE
  5
18
102
{ACAD_REACTORS
330
17
102
}
330
17
100
AcDbMlineStyle
  2
Standard
 70
     0
  3

 62
   256
 51
90.0
 52
90.0
 71
     2
 49
0.5
 62
   256
  6
BYLAYER
 49
-0.5
 62
   256
  6
BYLAYER
  0
ACDBPLACEHOLDER
  5
F
102
{ACAD_REACTORS
330
E
102
}
330
E
  0
SCALE
  5
48
102
{ACAD_REACTORS
330
47
102
}
330
47
100
AcDbScale
 70
     0
300
1:1
140
1.0
141
1.0
290
     1
  0
SCALE
  5
49
102
{ACAD_REACTORS
330
47
102
}
330
47
100
AcDbScale
 70
     0
300
1/128" = 1'-0"
140
0.0078125
141
12.0
290
     0
  0
SCALE
  5
4A
102
{ACAD_REACTORS
330
47
102
}
330
47
100
AcDbScale
 70
     0
300
1/64" = 1'-0"
140
0.015625
141
12.0
290
     0
  0
SCALE
  5
4B
102
{ACAD_REACTORS
330
47
102
}
330
47
100
AcDbScale
 70
     0
300
1/32" = 1'-0"
140
0.03125
141
12.0
290
     0
  0
SCALE
  5
4C
102
{ACAD_REACTORS
330
47
102
}
330
47
100
AcDbScale
 70
     0
300
1/16" = 1'-0"
140
0.0625
141
12.0
290
     0
  0
SCALE
  5
4D
102
{ACAD_REACTORS
330
47
102
}
330
47
100
AcDbScale
 70
     0
300
3/32" = 1'-0"
140
0.09375
141
12.0
290
     0
  0
SCALE
  5
4E
102
{ACAD_REACTORS
330
47
102
}
330
47
100
AcDbScale
 70
     0
300
1/8" = 1'-0"
140
0.125
141
12.0
290
     0
  0
SCALE
  5
4F
102
{ACAD_REACTORS
330
47
102
}
330
47
100
AcDbScale
 70
     0
300
3/16" = 1'-0"
140
0.1875
141
12.0
290
     0
  0
SCALE
  5
50
102
{ACAD_REACTORS
330
47
102
}
330
47
100
AcDbScale
 70
     0
300
1/4" = 1'-0"
140
0.25
141
12.0
290
     0
  0
SCALE
  5
51
102
{ACAD_REACTORS
330
47
102
}
330
47
100
AcDbScale
 70
     0
300
3/8" = 1'-0"
140
0.375
141
12.0
290
     0
  0
SCALE
  5
52
102
{ACAD_REACTORS
330
47
102
}
330
47
100
AcDbScale
 70
     0
300
1/2" = 1'-0"
140
0.5
141
12.0
290
     0
  0
SCALE
  5
53
102
{ACAD_REACTORS
330
47
102
}
330
47
100
AcDbScale
 70
     0
300
3/4" = 1'-0"
140
0.75
141
12.0
290
     0
  0
SCALE
  5
54
102
{ACAD_REACTORS
330
47
102
}
330
47
100
AcDbScale
 70
     0
300
1" = 1'-0"
140
1.0
141
12.0
290
     0
  0
SCALE
  5
55
102
{ACAD_REACTORS
330
47
102
}
330
47
100
AcDbScale
 70
     0
300
1-1/2" = 1'-0"
140
1.5
141
12.0
290
     0
  0
SCALE
  5
56
102
{ACAD_REACTORS
330
47
102
}
330
47
100
AcDbScale
 70
     0
300
3" = 1'-0"
140
3.0
141
12.0
290
     0
  0
SCALE
  5
57
102
{ACAD_REACTORS
330
47
102
}
330
47
100
AcDbScale
 70
     0
300
6" = 1'-0"
140
6.0
141
12.0
290
     0
  0
SCALE
  5
58
102
{ACAD_REACTORS
330
47
102
}
330
47
100
AcDbScale
 70
     0
300
1'-0" = 1'-0"
140
12.0
141
12.0
290
     0
  0
TABLESTYLE
  5
5A
102
{ACAD_REACTORS
330
59
102
}
102
{ACAD_XDICTIONARY
360
27B
102
}
330
59
100
AcDbTableStyle
  3
Standard
 70
     0
 71
     0
 40
0.06
 41
0.06
280
     0
281
     0
  7
Standard
140
0.18
170
     2
 62
     0
 63
   257
283
     0
 90
        4
 91
        0
  1

274
    -2
284
     1
 64
     0
275
    -2
285
     1
 65
     0
276
    -2
286
     1
 66
     0
277
    -2
287
     1
 67
     0
278
    -2
288
     1
 68
     0
279
    -2
289
     1
 69
     0
  7
Standard
140
0.25
170
     5
 62
     0
 63
   257
283
     0
 90
        4
 91
        0
  1

274
    -2
284
     1
 64
     0
275
    -2
285
     1
 65
     0
276
    -2
286
     1
 66
     0
277
    -2
287
     1
 67
     0
278
    -2
288
     1
 68
     0
279
    -2
289
     1
 69
     0
  7
Standard
140
0.18
170
     5
 62
     0
 63
   257
283
     0
 90
        4
 91
        0
  1

274
    -2
284
     1
 64
     0
275
    -2
285
     1
 65
     0
276
    -2
286
     1
 66
     0
277
    -2
287
     1
 67
     0
278
    -2
288
     1
 68
     0
279
    -2
289
     1
 69
     0
  0
VISUALSTYLE
  5
2F
102
{ACAD_REACTORS
330
2A
102
}
102
{ACAD_XDICTIONARY
360
253
102
}
330
2A
100
AcDbVisualStyle
  2
2dWireframe
 70
     4
 71
     0
 72
     2
 73
     0
 90
        0
 40
0.6
 41
30.0
 62
     5
 63
     7
421
 16777215
 74
     1
 91
        4
 64
     7
 65
   257
 75
     1
175
     1
 42
1.0
 92
        0
 66
   257
 43
1.0
 76
     1
 77
     6
 78
     2
 67
     7
 79
     5
170
     0
171
     0
290
     0
174
     0
 93
        1
 44
0.0
173
     0
291
     0
 45
0.0
  0
VISUALSTYLE
  5
32
102
{ACAD_REACTORS
330
2A
102
}
102
{ACAD_XDICTIONARY
360
259
102
}
330
2A
100
AcDbVisualStyle
  2
Basic
 70
     7
 71
     1
 72
     0
 73
     1
 90
        0
 40
0.6
 41
30.0
 62
     5
 63
     7
421
 16777215
 74
     0
 91
        4
 64
     7
 65
   257
 75
     1
175
     1
 42
1.0
 92
        8
 66
     7
 43
1.0
 76
     1
 77
     6
 78
     2
 67
     7
 79
     5
170
     0
171
     0
290
     0
174
     0
 93
        1
 44
0.0
173
     0
291
     1
 45
0.0
  0
VISUALSTYLE
  5
36
102
{ACAD_REACTORS
330
2A
102
}
102
{ACAD_XDICTIONARY
360
261
102
}
330
2A
100
AcDbVisualStyle
  2
Brighten
 70
    12
 71
     2
 72
     2
 73
     0
 90
        0
 40
0.6
 41
30.0
 62
     5
 63
     7
421
 16777215
 74
     1
 91
        4
 64
     7
 65
   257
 75
     1
175
     1
 42
1.0
 92
        8
 66
     7
 43
1.0
 76
     1
 77
     6
 78
     2
 67
     7
 79
     5
170
     0
171
     0
290
     0
174
     0
 93
        1
 44
50.0
173
     0
291
     1
 45
0.0
  0
VISUALSTYLE
  5
3A
102
{ACAD_REACTORS
330
2A
102
}
102
{ACAD_XDICTIONARY
360
269
102
}
330
2A
100
AcDbVisualStyle
  2
ColorChange
 70
    16
 71
     2
 72
     2
 73
     3
 90
        0
 40
0.6
 41
30.0
 62
     5
 63
     8
421
  8421504
 74
     1
 91
        4
 64
     7
 65
   257
 75
     1
175
     1
 42
1.0
 92
        8
 66
     8
424
  8421504
 43
1.0
 76
     1
 77
     6
 78
     2
 67
     7
 79
     5
170
     0
171
     0
290
     0
174
     0
 93
        1
 44
0.0
173
     0
291
     1
 45
0.0
  0
VISUALSTYLE
  5
34
102
{ACAD_REACTORS
330
2A
102
}
102
{ACAD_XDICTIONARY
360
25D
102
}
330
2A
100
AcDbVisualStyle
  2
Conceptual
 70
     9
 71
     3
 72
     2
 73
     0
 90
        0
 40
0.6
 41
30.0
 62
     5
 63
     7
421
 16777215
 74
     2
 91
        2
 64
     7
 65
   257
 75
     1
175
     1
 42
179.0
 92
        8
 66
     7
 43
1.0
 76
     1
 77
     6
 78
     2
 67
     7
 79
     3
170
     0
171
     0
290
     0
174
     0
 93
        1
 44
0.0
173
     0
291
     0
 45
0.0
  0
VISUALSTYLE
  5
35
102
{ACAD_REACTORS
330
2A
102
}
102
{ACAD_XDICTIONARY
360
25F
102
}
330
2A
100
AcDbVisualStyle
  2
Dim
 70
    11
 71
     2
 72
     2
 73
     0
 90
        0
 40
0.6
 41
30.0
 62
     5
 63
     7
421
 16777215
 74
     1
 91
        4
 64
     7
 65
   257
 75
     1
175
     1
 42
1.0
 92
        8
 66
     7
 43
1.0
 76
     1
 77
     6
 78
     2
 67
     7
 79
     5
170
     0
171
     0
290
     0
174
     0
 93
        1
 44
-50.0
173
     0
291
     1
 45
0.0
  0
VISUALSTYLE
  5
3D
102
{ACAD_REACTORS
330
2A
102
}
102
{ACAD_XDICTIONARY
360
26F
102
}
330
2A
100
AcDbVisualStyle
  2
EdgeColorOff
 70
    22
 71
     2
 72
     2
 73
     0
 90
        0
 40
0.6
 41
30.0
 62
     5
 63
     7
421
 16777215
 74
     1
 91
        4
 64
     7
 65
   257
 75
     1
175
     1
 42
1.0
 92
        8
 66
     7
 43
1.0
 76
     1
 77
     6
 78
     2
 67
     7
 79
     5
170
     0
171
     0
290
     0
174
     0
 93
        1
 44
0.0
173
     0
291
     1
 45
0.0
  0
VISUALSTYLE
  5
39
102
{ACAD_REACTORS
330
2A
102
}
102
{ACAD_XDICTIONARY
360
267
102
}
330
2A
100
AcDbVisualStyle
  2
Facepattern
 70
    15
 71
     2
 72
     2
 73
     0
 90
        0
 40
0.6
 41
30.0
 62
     5
 63
     7
421
 16777215
 74
     1
 91
        4
 64
     7
 65
   257
 75
     1
175
     1
 42
1.0
 92
        8
 66
     7
 43
1.0
 76
     1
 77
     6
 78
     2
 67
     7
 79
     5
170
     0
171
     0
290
     0
174
     0
 93
        1
 44
0.0
173
     0
291
     1
 45
0.0
  0
VISUALSTYLE
  5
2B
102
{ACAD_REACTORS
330
2A
102
}
102
{ACAD_XDICTIONARY
360
24B
102
}
330
2A
100
AcDbVisualStyle
  2
Flat
 70
     0
 71
     2
 72
     1
 73
     1
 90
        2
 40
0.6
 41
30.0
 62
     5
 63
     7
421
 16777215
 74
     0
 91
        0
 64
     7
 65
   257
 75
     1
175
     1
 42
1.0
 92
        8
 66
     7
 43
1.0
 76
     1
 77
     6
 78
     2
 67
     7
 79
     5
170
     0
171
     0
290
     0
174
     0
 93
       13
 44
0.0
173
     0
291
     1
 45
0.0
  0
VISUALSTYLE
  5
2C
102
{ACAD_REACTORS
330
2A
102
}
102
{ACAD_XDICTIONARY
360
24D
102
}
330
2A
100
AcDbVisualStyle
  2
FlatWithEdges
 70
     1
 71
     2
 72
     1
 73
     1
 90
        2
 40
0.6
 41
30.0
 62
     5
 63
     7
421
 16777215
 74
     1
 91
        0
 64
     7
 65
   257
 75
     1
175
     1
 42
1.0
 92
        0
 66
   257
 43
1.0
 76
     1
 77
     6
 78
     2
 67
     7
 79
     5
170
     0
171
     0
290
     0
174
     0
 93
       13
 44
0.0
173
     0
291
     1
 45
0.0
  0
VISUALSTYLE
  5
2D
102
{ACAD_REACTORS
330
2A
102
}
102
{ACAD_XDICTIONARY
360
24F
102
}
330
2A
100
AcDbVisualStyle
  2
Gouraud
 70
     2
 71
     2
 72
     2
 73
     1
 90
        2
 40
0.6
 41
30.0
 62
     5
 63
     7
421
 16777215
 74
     0
 91
        0
 64
     7
 65
   257
 75
     1
175
     1
 42
1.0
 92
        0
 66
     7
 43
1.0
 76
     1
 77
     6
 78
     2
 67
     7
 79
     5
170
     0
171
     0
290
     0
174
     0
 93
       13
 44
0.0
173
     0
291
     1
 45
0.0
  0
VISUALSTYLE
  5
2E
102
{ACAD_REACTORS
330
2A
102
}
102
{ACAD_XDICTIONARY
360
251
102
}
330
2A
100
AcDbVisualStyle
  2
GouraudWithEdges
 70
     3
 71
     2
 72
     2
 73
     1
 90
        2
 40
0.6
 41
30.0
 62
     5
 63
     7
421
 16777215
 74
     1
 91
        0
 64
     7
 65
   257
 75
     1
175
     1
 42
1.0
 92
        0
 66
   257
 43
1.0
 76
     1
 77
     6
 78
     2
 67
     7
 79
     5
170
     0
171
     0
290
     0
174
     0
 93
       13
 44
0.0
173
     0
291
     1
 45
0.0
  0
VISUALSTYLE
  5
31
102
{ACAD_REACTORS
330
2A
102
}
102
{ACAD_XDICTIONARY
360
257
102
}
330
2A
100
AcDbVisualStyle
  2
Hidden
 70
     6
 71
     1
 72
     2
 73
     2
 90
        0
 40
0.6
 41
30.0
 62
     5
 63
     7
421
 16777215
 74
     2
 91
        2
 64
     7
 65
   257
 75
     2
175
     1
 42
40.0
 92
        0
 66
   257
 43
1.0
 76
     1
 77
     6
 78
     2
 67
     7
 79
     3
170
     0
171
     0
290
     0
174
     0
 93
        1
 44
0.0
173
     0
291
     0
 45
0.0
  0
VISUALSTYLE
  5
3B
102
{ACAD_REACTORS
330
2A
102
}
102
{ACAD_XDICTIONARY
360
26B
102
}
330
2A
100
AcDbVisualStyle
  2
JitterOff
 70
    20
 71
     2
 72
     2
 73
     0
 90
        0
 40
0.6
 41
30.0
 62
     5
 63
     7
421
 16777215
 74
     1
 91
        4
 64
     7
 65
   257
 75
     1
175
     1
 42
1.0
 92
       10
 66
     7
 43
1.0
 76
     1
 77
     6
 78
     2
 67
     7
 79
     5
170
     0
171
     0
290
     0
174
     0
 93
        1
 44
0.0
173
     0
291
     1
 45
0.0
  0
VISUALSTYLE
  5
38
102
{ACAD_REACTORS
330
2A
102
}
102
{ACAD_XDICTIONARY
360
265
102
}
330
2A
100
AcDbVisualStyle
  2
Linepattern
 70
    14
 71
     2
 72
     2
 73
     0
 90
        0
 40
0.6
 41
30.0
 62
     5
 63
     7
421
 16777215
 74
     1
 91
        4
 64
     7
 65
   257
 75
     7
175
     7
 42
1.0
 92
        8
 66
     7
 43
1.0
 76
     1
 77
     6
 78
     2
 67
     7
 79
     5
170
     0
171
     0
290
     0
174
     0
 93
        1
 44
0.0
173
     0
291
     1
 45
0.0
  0
VISUALSTYLE
  5
3C
102
{ACAD_REACTORS
330
2A
102
}
102
{ACAD_XDICTIONARY
360
26D
102
}
330
2A
100
AcDbVisualStyle
  2
OverhangOff
 70
    21
 71
     2
 72
     2
 73
     0
 90
        0
 40
0.6
 41
30.0
 62
     5
 63
     7
421
 16777215
 74
     1
 91
        4
 64
     7
 65
   257
 75
     1
175
     1
 42
1.0
 92
        9
 66
     7
 43
1.0
 76
     1
 77
     6
 78
     2
 67
     7
 79
     5
170
     0
171
     0
290
     0
174
     0
 93
        1
 44
0.0
173
     0
291
     1
 45
0.0
  0
VISUALSTYLE
  5
33
102
{ACAD_REACTORS
330
2A
102
}
102
{ACAD_XDICTIONARY
360
25B
102
}
330
2A
100
AcDbVisualStyle
  2
Realistic
 70
     8
 71
     2
 72
     3
 73
     0
 90
        2
 40
0.6
 41
30.0
 62
     5
 63
     7
421
 16777215
 74
     0
 91
        0
 64
     7
 65
   257
 75
     1
175
     1
 42
1.0
 92
        8
 66
   257
 43
1.0
 76
     1
 77
     6
 78
     2
 67
     7
 79
     3
170
     0
171
     0
290
     0
174
     0
 93
       13
 44
0.0
173
     0
291
     0
 45
0.0
  0
VISUALSTYLE
  5
42
102
{ACAD_REACTORS
330
2A
102
}
102
{ACAD_XDICTIONARY
360
279
102
}
330
2A
100
AcDbVisualStyle
  2
Shaded
 70
    27
 71
     2
 72
     2
 73
     1
 90
        2
 40
0.6
 41
30.0
 62
     5
 63
     7
421
 16777215
 74
     0
 91
        4
 64
     7
 65
   257
 75
     1
175
     1
 42
1.0
 92
        8
 66
   257
 43
1.0
 76
     1
 77
     6
 78
     2
 67
     8
425
  7895160
 79
     3
170
     0
171
     0
290
     0
174
     0
 93
        5
 44
0.0
173
     0
291
     0
 45
0.0
  0
VISUALSTYLE
  5
41
102
{ACAD_REACTORS
330
2A
102
}
102
{ACAD_XDICTIONARY
360
277
102
}
330
2A
100
AcDbVisualStyle
  2
Shaded with edges
 70
    26
 71
     2
 72
     2
 73
     1
 90
        2
 40
0.6
 41
30.0
 62
     5
 63
     7
421
 16777215
 74
     1
 91
       10
 64
     7
 65
   257
 75
     2
175
     1
 42
1.0
 92
        8
 66
   257
 43
1.0
 76
     1
 77
     6
 78
     2
 67
     7
 79
     3
170
     0
171
     0
290
     0
174
     0
 93
        5
 44
0.0
173
     0
291
     0
 45
0.0
  0
VISUALSTYLE
  5
3E
102
{ACAD_REACTORS
330
2A
102
}
102
{ACAD_XDICTIONARY
360
271
102
}
330
2A
100
AcDbVisualStyle
  2
Shades of Gray
 70
    23
 71
     2
 72
     2
 73
     3
 90
        0
 40
0.6
 41
30.0
 62
     5
 63
     7
421
 16777215
 74
     2
 91
        2
 64
     7
 65
     7
 75
     1
175
     1
 42
40.0
 92
        8
 66
     7
 43
1.0
 76
     1
 77
     6
 78
     2
 67
     7
 79
     3
170
     0
171
     0
290
     0
174
     0
 93
        1
 44
0.0
173
     0
291
     0
 45
0.0
  0
VISUALSTYLE
  5
3F
102
{ACAD_REACTORS
330
2A
102
}
102
{ACAD_XDICTIONARY
360
273
102
}
330
2A
100
AcDbVisualStyle
  2
Sketchy
 70
    24
 71
     1
 72
     2
 73
     2
 90
        0
 40
0.6
 41
30.0
 62
     5
 63
     7
421
 16777215
 74
     2
 91
        2
 64
     7
 65
     7
 75
     1
175
     1
 42
40.0
 92
       11
 66
     7
 43
1.0
 76
     1
 77
     6
 78
     2
 67
     7
 79
     6
170
     0
171
     0
290
     0
174
     0
 93
        1
 44
0.0
173
     0
291
     0
 45
0.0
  0
VISUALSTYLE
  5
37
102
{ACAD_REACTORS
330
2A
102
}
102
{ACAD_XDICTIONARY
360
263
102
}
330
2A
100
AcDbVisualStyle
  2
Thicken
 70
    13
 71
     2
 72
     2
 73
     0
 90
        0
 40
0.6
 41
30.0
 62
     5
 63
     7
421
 16777215
 74
     1
 91
        4
 64
     7
 65
   257
 75
     1
175
     1
 42
1.0
 92
       12
 66
     7
 43
1.0
 76
     1
 77
     6
 78
     2
 67
     7
 79
     5
170
     0
171
     0
290
     0
174
     0
 93
        1
 44
0.0
173
     0
291
     1
 45
0.0
  0
VISUALSTYLE
  5
30
102
{ACAD_REACTORS
330
2A
102
}
102
{ACAD_XDICTIONARY
360
255
102
}
330
2A
100
AcDbVisualStyle
  2
Wireframe
 70
     5
 71
     0
 72
     2
 73
     0
 90
        0
 40
0.6
 41
30.0
 62
     5
 63
     7
421
 16777215
 74
     1
 91
        4
 64
     7
 65
   257
 75
     1
175
     1
 42
1.0
 92
        0
 66
   257
 43
1.0
 76
     1
 77
     6
 78
     2
 67
     7
 79
     3
170
     0
171
     0
290
     0
174
     0
 93
        1
 44
0.0
173
     0
291
     0
 45
0.0
  0
VISUALSTYLE
  5
40
102
{ACAD_REACTORS
330
2A
102
}
102
{ACAD_XDICTIONARY
360
275
102
}
330
2A
100
AcDbVisualStyle
  2
X-Ray
 70
    25
 71
     2
 72
     2
 73
     1
 90
        1
 40
0.5
 41
30.0
 62
     5
 63
     7
421
 16777215
 74
     1
 91
        0
 64
     7
 65
   257
 75
     1
175
     1
 42
1.0
 92
        8
 66
     7
 43
1.0
 76
     1
 77
     6
 78
     2
 67
     7
 79
     3
170
     0
171
     0
290
     0
174
     0
 93
       13
 44
0.0
173
     0
291
     0
 45
0.0
  0
DICTIONARYVAR
  5
249
102
{ACAD_REACTORS
330
248
102
}
330
248
100
DictionaryVariables
280
     0
  1
1:1
  0
DICTIONARYVAR
  5
282
102
{ACAD_REACTORS
330
248
102
}
330
248
100
DictionaryVariables
280
     0
  1
Standard
  0
DICTIONARYVAR
  5
281
102
{ACAD_REACTORS
330
248
102
}
330
248
100
DictionaryVariables
280
     0
  1
Standard
  0
DICTIONARYVAR
  5
24A
102
{ACAD_REACTORS
330
248
102
}
330
248
100
DictionaryVariables
280
     0
  1
2
  0
DICTIONARY
  5
27E
330
5C
100
AcDbDictionary
280
     1
281
     1
  3
ACAD_XREC_ROUNDTRIP
360
27F
  0
DICTIONARY
  5
27B
330
5A
100
AcDbDictionary
280
     1
281
     1
  3
ACAD_ROUNDTRIP_2008_TABLESTYLE_CELLSTYLEMAP
360
27C
  0
DICTIONARY
  5
253
330
2F
100
AcDbDictionary
280
     1
281
     1
  3
ACAD_XREC_ROUNDTRIP
360
254
  0
DICTIONARY
  5
259
330
32
100
AcDbDictionary
280
     1
281
     1
  3
ACAD_XREC_ROUNDTRIP
360
25A
  0
DICTIONARY
  5
261
330
36
100
AcDbDictionary
280
     1
281
     1
  3
ACAD_XREC_ROUNDTRIP
360
262
  0
DICTIONARY
  5
269
330
3A
100
AcDbDictionary
280
     1
281
     1
  3
ACAD_XREC_ROUNDTRIP
360
26A
  0
DICTIONARY
  5
25D
330
34
100
AcDbDictionary
280
     1
281
     1
  3
ACAD_XREC_ROUNDTRIP
360
25E
  0
DICTIONARY
  5
25F
330
35
100
AcDbDictionary
280
     1
281
     1
  3
ACAD_XREC_ROUNDTRIP
360
260
  0
DICTIONARY
  5
26F
330
3D
100
AcDbDictionary
280
     1
281
     1
  3
ACAD_XREC_ROUNDTRIP
360
270
  0
DICTIONARY
  5
267
330
39
100
AcDbDictionary
280
     1
281
     1
  3
ACAD_XREC_ROUNDTRIP
360
268
  0
DICTIONARY
  5
24B
330
2B
100
AcDbDictionary
280
     1
281
     1
  3
ACAD_XREC_ROUNDTRIP
360
24C
  0
DICTIONARY
  5
24D
330
2C
100
AcDbDictionary
280
     1
281
     1
  3
ACAD_XREC_ROUNDTRIP
360
24E
  0
DICTIONARY
  5
24F
330
2D
100
AcDbDictionary
280
     1
281
     1
  3
ACAD_XREC_ROUNDTRIP
360
250
  0
DICTIONARY
  5
251
330
2E
100
AcDbDictionary
280
     1
281
     1
  3
ACAD_XREC_ROUNDTRIP
360
252
  0
DICTIONARY
  5
257
330
31
100
AcDbDictionary
280
     1
281
     1
  3
ACAD_XREC_ROUNDTRIP
360
258
  0
DICTIONARY
  5
26B
330
3B
100
AcDbDictionary
280
     1
281
     1
  3
ACAD_XREC_ROUNDTRIP
360
26C
  0
DICTIONARY
  5
265
330
38
100
AcDbDictionary
280
     1
281
     1
  3
ACAD_XREC_ROUNDTRIP
360
266
  0
DICTIONARY
  5
26D
330
3C
100
AcDbDictionary
280
     1
281
     1
  3
ACAD_XREC_ROUNDTRIP
360
26E
  0
DICTIONARY
  5
25B
330
33
100
AcDbDictionary
280
     1
281
     1
  3
ACAD_XREC_ROUNDTRIP
360
25C
  0
DICTIONARY
  5
279
330
42
100
AcDbDictionary
280
     1
281
     1
  3
ACAD_XREC_ROUNDTRIP
360
27A
  0
DICTIONARY
  5
277
330
41
100
AcDbDictionary
280
     1
281
     1
  3
ACAD_XREC_ROUNDTRIP
360
278
  0
DICTIONARY
  5
271
330
3E
100
AcDbDictionary
280
     1
281
     1
  3
ACAD_XREC_ROUNDTRIP
360
272
  0
DICTIONARY
  5
273
330
3F
100
AcDbDictionary
280
     1
281
     1
  3
ACAD_XREC_ROUNDTRIP
360
274
  0
DICTIONARY
  5
263
330
37
100
AcDbDictionary
280
     1
281
     1
  3
ACAD_XREC_ROUNDTRIP
360
264
  0
DICTIONARY
  5
255
330
30
100
AcDbDictionary
280
     1
281
     1
  3
ACAD_XREC_ROUNDTRIP
360
256
  0
DICTIONARY
  5
275
330
40
100
AcDbDictionary
280
     1
281
     1
  3
ACAD_XREC_ROUNDTRIP
360
276
  0
XRECORD
  5
27F
102
{ACAD_REACTORS
330
27E
102
}
330
27E
100
AcDbXrecord
280
     1
102
ACAD_ROUNDTRIP_2010_MLEADER_STYLE
  0
CELLSTYLEMAP
  5
27C
102
{ACAD_REACTORS
330
27B
102
}
330
27B
100
AcDbCellStyleMap
 90
        3
300
CELLSTYLE
  1
TABLEFORMAT_BEGIN
 90
        5
170
     1
 91
        0
 92
    32768
 62
   257
 93
        1
300
CONTENTFORMAT
  1
CONTENTFORMAT_BEGIN
 90
        0
 91
        0
 92
        4
 93
        0
300

 40
0.0
140
1.0
 94
        5
 62
     0
340
11
144
0.25
309
CONTENTFORMAT_END
171
     1
301
MARGIN
  1
CELLMARGIN_BEGIN
 40
0.06
 40
0.06
 40
0.06
 40
0.06
 40
0.06
 40
0.06
309
CELLMARGIN_END
 94
        6
 95
        1
302
GRIDFORMAT
  1
GRIDFORMAT_BEGIN
 90
        0
 91
        1
 62
     0
 92
       -2
340
14
 93
        0
 40
0.045
309
GRIDFORMAT_END
 95
        2
302
GRIDFORMAT
  1
GRIDFORMAT_BEGIN
 90
        0
 91
        1
 62
     0
 92
       -2
340
14
 93
        0
 40
0.045
309
GRIDFORMAT_END
 95
        4
302
GRIDFORMAT
  1
GRIDFORMAT_BEGIN
 90
        0
 91
        1
 62
     0
 92
       -2
340
14
 93
        0
 40
0.045
309
GRIDFORMAT_END
 95
        8
302
GRIDFORMAT
  1
GRIDFORMAT_BEGIN
 90
        0
 91
        1
 62
     0
 92
       -2
340
14
 93
        0
 40
0.045
309
GRIDFORMAT_END
 95
       16
302
GRIDFORMAT
  1
GRIDFORMAT_BEGIN
 90
        0
 91
        1
 62
     0
 92
       -2
340
14
 93
        0
 40
0.045
309
GRIDFORMAT_END
 95
       32
302
GRIDFORMAT
  1
GRIDFORMAT_BEGIN
 90
        0
 91
        1
 62
     0
 92
       -2
340
14
 93
        0
 40
0.045
309
GRIDFORMAT_END
309
TABLEFORMAT_END
  1
CELLSTYLE_BEGIN
 90
        1
 91
        1
300
_TITLE
309
CELLSTYLE_END
300
CELLSTYLE
  1
TABLEFORMAT_BEGIN
 90
        5
170
     1
 91
        0
 92
        0
 62
   257
 93
        1
300
CONTENTFORMAT
  1
CONTENTFORMAT_BEGIN
 90
        0
 91
        0
 92
        4
 93
        0
300

 40
0.0
140
1.0
 94
        5
 62
     0
340
11
144
0.18
309
CONTENTFORMAT_END
171
     1
301
MARGIN
  1
CELLMARGIN_BEGIN
 40
0.06
 40
0.06
 40
0.06
 40
0.06
 40
0.06
 40
0.06
309
CELLMARGIN_END
 94
        6
 95
        1
302
GRIDFORMAT
  1
GRIDFORMAT_BEGIN
 90
        0
 91
        1
 62
     0
 92
       -2
340
14
 93
        0
 40
0.045
309
GRIDFORMAT_END
 95
        2
302
GRIDFORMAT
  1
GRIDFORMAT_BEGIN
 90
        0
 91
        1
 62
     0
 92
       -2
340
14
 93
        0
 40
0.045
309
GRIDFORMAT_END
 95
        4
302
GRIDFORMAT
  1
GRIDFORMAT_BEGIN
 90
        0
 91
        1
 62
     0
 92
       -2
340
14
 93
        0
 40
0.045
309
GRIDFORMAT_END
 95
        8
302
GRIDFORMAT
  1
GRIDFORMAT_BEGIN
 90
        0
 91
        1
 62
     0
 92
       -2
340
14
 93
        0
 40
0.045
309
GRIDFORMAT_END
 95
       16
302
GRIDFORMAT
  1
GRIDFORMAT_BEGIN
 90
        0
 91
        1
 62
     0
 92
       -2
340
14
 93
        0
 40
0.045
309
GRIDFORMAT_END
 95
       32
302
GRIDFORMAT
  1
GRIDFORMAT_BEGIN
 90
        0
 91
        1
 62
     0
 92
       -2
340
14
 93
        0
 40
0.045
309
GRIDFORMAT_END
309
TABLEFORMAT_END
  1
CELLSTYLE_BEGIN
 90
        2
 91
        1
300
_HEADER
309
CELLSTYLE_END
300
CELLSTYLE
  1
TABLEFORMAT_BEGIN
 90
        5
170
     1
 91
        0
 92
        0
 62
   257
 93
        1
300
CONTENTFORMAT
  1
CONTENTFORMAT_BEGIN
 90
        0
 91
        0
 92
        4
 93
        0
300

 40
0.0
140
1.0
 94
        2
 62
     0
340
11
144
0.18
309
CONTENTFORMAT_END
171
     1
301
MARGIN
  1
CELLMARGIN_BEGIN
 40
0.06
 40
0.06
 40
0.06
 40
0.06
 40
0.06
 40
0.06
309
CELLMARGIN_END
 94
        6
 95
        1
302
GRIDFORMAT
  1
GRIDFORMAT_BEGIN
 90
        0
 91
        1
 62
     0
 92
       -2
340
14
 93
        0
 40
0.045
309
GRIDFORMAT_END
 95
        2
302
GRIDFORMAT
  1
GRIDFORMAT_BEGIN
 90
        0
 91
        1
 62
     0
 92
       -2
340
14
 93
        0
 40
0.045
309
GRIDFORMAT_END
 95
        4
302
GRIDFORMAT
  1
GRIDFORMAT_BEGIN
 90
        0
 91
        1
 62
     0
 92
       -2
340
14
 93
        0
 40
0.045
309
GRIDFORMAT_END
 95
        8
302
GRIDFORMAT
  1
GRIDFORMAT_BEGIN
 90
        0
 91
        1
 62
     0
 92
       -2
340
14
 93
        0
 40
0.045
309
GRIDFORMAT_END
 95
       16
302
GRIDFORMAT
  1
GRIDFORMAT_BEGIN
 90
        0
 91
        1
 62
     0
 92
       -2
340
14
 93
        0
 40
0.045
309
GRIDFORMAT_END
 95
       32
302
GRIDFORMAT
  1
GRIDFORMAT_BEGIN
 90
        0
 91
        1
 62
     0
 92
       -2
340
14
 93
        0
 40
0.045
309
GRIDFORMAT_END
309
TABLEFORMAT_END
  1
CELLSTYLE_BEGIN
 90
        3
 91
        2
300
_DATA
309
CELLSTYLE_END
  0
XRECORD
  5
254
102
{ACAD_REACTORS
330
253
102
}
330
253
100
AcDbXrecord
280
     1
102
RTVSPropertyOp0
 70
     1
102
RTVSPropertyOp1
 70
     1
102
RTVSPropertyOp2
 70
     1
102
RTVSPropertyOp3
 70
     1
102
RTVSPropertyOp4
 70
     1
102
RTVSPropertyOp5
 70
     1
102
RTVSPropertyOp6
 70
     1
102
RTVSPropertyOp7
 70
     1
102
RTVSPropertyOp8
 70
     1
102
RTVSPropertyOp9
 70
     1
102
RTVSPropertyOp10
 70
     1
102
RTVSPropertyOp11
 70
     1
102
RTVSPropertyOp12
 70
     1
102
RTVSPropertyOp13
 70
     1
102
RTVSPropertyOp14
 70
     1
102
RTVSPropertyOp15
 70
     1
102
RTVSPropertyOp16
 70
     1
102
RTVSPropertyOp17
 70
     1
102
RTVSPropertyOp18
 70
     1
102
RTVSPropertyOp19
 70
     1
102
RTVSPropertyOp20
 70
     1
102
RTVSPropertyOp21
 70
     1
102
RTVSPropertyOp22
 70
     1
102
RTVSPropertyOp23
 70
     1
102
RTVSPropertyOp24
 70
     1
102
RTVSPropertyOp25
 70
     1
102
RTVSPropertyOp26
 70
     1
102
RTVSPropertyOp27
 70
     1
102
RTVSPropertyOp28
 70
     1
102
RTVSPropertyOp29
 70
     1
102
RTVSPropertyOp30
 70
     1
102
RTVSPropertyOp31
 70
     1
102
RTVSPropertyOp32
 70
     1
102
RTVSPropertyOp33
 70
     1
102
RTVSPropertyOp34
 70
     1
102
RTVSPropertyOp35
 70
     1
102
RTVSPropertyOp36
 70
     1
102
RTVSPropertyOp37
 70
     1
102
RTVSPropertyOp38
 70
     1
102
RTVSPropertyOp39
 70
     1
102
RTVSPropertyOp40
 70
     1
102
RTVSPropertyOp41
 70
     1
102
RTVSPropertyOp42
 70
     1
102
RTVSPropertyOp43
 70
     1
102
RTVSPropertyOp44
 70
     1
102
RTVSPropertyOp45
 70
     1
102
RTVSPropertyOp46
 70
     1
102
RTVSPropertyOp47
 70
     1
102
RTVSPropertyOp48
 70
     1
102
RTVSPropertyOp49
 70
     1
102
RTVSPropertyOp50
 70
     1
102
RTVSPropertyOp51
 70
     0
102
RTVSPropertyOp52
 70
     0
102
RTVSPropertyOp53
 70
     1
102
RTVSPropertyOp54
 70
     1
102
RTVSPropertyOp55
 70
     1
102
RTVSPropertyOp56
 70
     1
102
RTVSPropertyOp57
 70
     1
102
RTVSPost2010Prop28
280
     1
102
RTVSPost2010PropOp28
 70
     1
102
RTVSPost2010Prop29
280
     1
102
RTVSPost2010PropOp29
 70
     1
102
RTVSPost2010Prop30
280
     0
102
RTVSPost2010PropOp30
 70
     1
102
RTVSPost2010Prop31
280
     0
102
RTVSPost2010PropOp31
 70
     1
102
RTVSPost2010Prop32
280
     0
102
RTVSPost2010PropOp32
 70
     1
102
RTVSPost2010Prop33
280
     0
102
RTVSPost2010PropOp33
 70
     1
102
RTVSPost2010Prop34
280
     0
102
RTVSPost2010PropOp34
 70
     1
102
RTVSPost2010Prop35
280
     0
102
RTVSPost2010PropOp35
 70
     1
102
RTVSPost2010Prop36
280
     0
102
RTVSPost2010PropOp36
 70
     1
102
RTVSPost2010Prop37
 90
       50
102
RTVSPost2010PropOp37
 70
     1
102
RTVSPost2010Prop38
140
0.0
102
RTVSPost2010PropOp38
 70
     1
102
RTVSPost2010Prop39
140
1.0
102
RTVSPost2010PropOp39
 70
     1
102
RTVSPost2010Prop40
 90
        0
102
RTVSPost2010PropOp40
 70
     1
102
RTVSPost2010Prop41ColorIndex
 90
       18
102
RTVSPost2010Prop41ColorRGB
 90
        0
102
RTVSPost2010PropOp41
 70
     1
102
RTVSPost2010Prop42
 90
       50
102
RTVSPost2010PropOp42
 70
     1
102
RTVSPost2010Prop43
 90
        3
102
RTVSPost2010PropOp43
 70
     1
102
RTVSPost2010Prop44ColorIndex
 90
        5
102
RTVSPost2010Prop44ColorRGB
 90
      255
102
RTVSPost2010PropOp44
 70
     1
102
RTVSPost2010Prop45
280
     0
102
RTVSPost2010PropOp45
 70
     1
102
RTVSPost2010Prop46
 90
       50
102
RTVSPost2010PropOp46
 70
     1
102
RTVSPost2010Prop47
 90
       50
102
RTVSPost2010PropOp47
 70
     1
102
RTVSPost2010Prop48
 90
       50
102
RTVSPost2010PropOp48
 70
     1
102
RTVSPost2010Prop49
280
     0
102
RTVSPost2010PropOp49
 70
     1
102
RTVSPost2010Prop50
 90
       50
102
RTVSPost2010PropOp50
 70
     1
102
RTVSPost2010Prop51ColorIndex
 90
      256
102
RTVSPost2010Prop51ColorRGB
 90
-16777216
102
RTVSPost2010PropOp51
 70
     0
102
RTVSPost2010Prop52
140
1.0
102
RTVSPost2010PropOp52
 70
     0
102
RTVSPost2010Prop53
 90
        2
102
RTVSPost2010PropOp53
 70
     1
102
RTVSPost2010Prop54
  1
strokes_ogs.tif
102
RTVSPost2010PropOp54
 70
     1
102
RTVSPost2010Prop55
280
     0
102
RTVSPost2010PropOp55
 70
     1
102
RTVSPost2010Prop56
140
1.0
102
RTVSPost2010PropOp56
 70
     1
102
RTVSPost2010Prop57
140
1.0
102
RTVSPost2010PropOp57
 70
     1
  0
XRECORD
  5
25A
102
{ACAD_REACTORS
330
259
102
}
330
259
100
AcDbXrecord
280
     1
102
RTVSPropertyOp0
 70
     1
102
RTVSPropertyOp1
 70
     1
102
RTVSPropertyOp2
 70
     1
102
RTVSPropertyOp3
 70
     1
102
RTVSPropertyOp4
 70
     1
102
RTVSPropertyOp5
 70
     1
102
RTVSPropertyOp6
 70
     1
102
RTVSPropertyOp7
 70
     1
102
RTVSPropertyOp8
 70
     1
102
RTVSPropertyOp9
 70
     1
102
RTVSPropertyOp10
 70
     1
102
RTVSPropertyOp11
 70
     1
102
RTVSPropertyOp12
 70
     1
102
RTVSPropertyOp13
 70
     1
102
RTVSPropertyOp14
 70
     1
102
RTVSPropertyOp15
 70
     1
102
RTVSPropertyOp16
 70
     1
102
RTVSPropertyOp17
 70
     1
102
RTVSPropertyOp18
 70
     1
102
RTVSPropertyOp19
 70
     1
102
RTVSPropertyOp20
 70
     1
102
RTVSPropertyOp21
 70
     1
102
RTVSPropertyOp22
 70
     1
102
RTVSPropertyOp23
 70
     1
102
RTVSPropertyOp24
 70
     1
102
RTVSPropertyOp25
 70
     1
102
RTVSPropertyOp26
 70
     1
102
RTVSPropertyOp27
 70
     1
102
RTVSPropertyOp28
 70
     1
102
RTVSPropertyOp29
 70
     1
102
RTVSPropertyOp30
 70
     1
102
RTVSPropertyOp31
 70
     1
102
RTVSPropertyOp32
 70
     1
102
RTVSPropertyOp33
 70
     1
102
RTVSPropertyOp34
 70
     1
102
RTVSPropertyOp35
 70
     1
102
RTVSPropertyOp36
 70
     1
102
RTVSPropertyOp37
 70
     1
102
RTVSPropertyOp38
 70
     1
102
RTVSPropertyOp39
 70
     1
102
RTVSPropertyOp40
 70
     1
102
RTVSPropertyOp41
 70
     1
102
RTVSPropertyOp42
 70
     1
102
RTVSPropertyOp43
 70
     1
102
RTVSPropertyOp44
 70
     1
102
RTVSPropertyOp45
 70
     1
102
RTVSPropertyOp46
 70
     1
102
RTVSPropertyOp47
 70
     1
102
RTVSPropertyOp48
 70
     1
102
RTVSPropertyOp49
 70
     1
102
RTVSPropertyOp50
 70
     1
102
RTVSPropertyOp51
 70
     0
102
RTVSPropertyOp52
 70
     0
102
RTVSPropertyOp53
 70
     1
102
RTVSPropertyOp54
 70
     1
102
RTVSPropertyOp55
 70
     1
102
RTVSPropertyOp56
 70
     1
102
RTVSPropertyOp57
 70
     1
102
RTVSPost2010Prop28
280
     0
102
RTVSPost2010PropOp28
 70
     1
102
RTVSPost2010Prop29
280
     1
102
RTVSPost2010PropOp29
 70
     1
102
RTVSPost2010Prop30
280
     1
102
RTVSPost2010PropOp30
 70
     1
102
RTVSPost2010Prop31
280
     0
102
RTVSPost2010PropOp31
 70
     1
102
RTVSPost2010Prop32
280
     0
102
RTVSPost2010PropOp32
 70
     1
102
RTVSPost2010Prop33
280
     0
102
RTVSPost2010PropOp33
 70
     1
102
RTVSPost2010Prop34
280
     0
102
RTVSPost2010PropOp34
 70
     1
102
RTVSPost2010Prop35
280
     0
102
RTVSPost2010PropOp35
 70
     1
102
RTVSPost2010Prop36
280
     0
102
RTVSPost2010PropOp36
 70
     1
102
RTVSPost2010Prop37
 90
       50
102
RTVSPost2010PropOp37
 70
     1
102
RTVSPost2010Prop38
140
0.0
102
RTVSPost2010PropOp38
 70
     1
102
RTVSPost2010Prop39
140
1.0
102
RTVSPost2010PropOp39
 70
     1
102
RTVSPost2010Prop40
 90
        0
102
RTVSPost2010PropOp40
 70
     1
102
RTVSPost2010Prop41ColorIndex
 90
       18
102
RTVSPost2010Prop41ColorRGB
 90
        0
102
RTVSPost2010PropOp41
 70
     1
102
RTVSPost2010Prop42
 90
       50
102
RTVSPost2010PropOp42
 70
     1
102
RTVSPost2010Prop43
 90
        3
102
RTVSPost2010PropOp43
 70
     1
102
RTVSPost2010Prop44ColorIndex
 90
        5
102
RTVSPost2010Prop44ColorRGB
 90
      255
102
RTVSPost2010PropOp44
 70
     1
102
RTVSPost2010Prop45
280
     0
102
RTVSPost2010PropOp45
 70
     1
102
RTVSPost2010Prop46
 90
       50
102
RTVSPost2010PropOp46
 70
     1
102
RTVSPost2010Prop47
 90
       50
102
RTVSPost2010PropOp47
 70
     1
102
RTVSPost2010Prop48
 90
       50
102
RTVSPost2010PropOp48
 70
     1
102
RTVSPost2010Prop49
280
     0
102
RTVSPost2010PropOp49
 70
     1
102
RTVSPost2010Prop50
 90
       50
102
RTVSPost2010PropOp50
 70
     1
102
RTVSPost2010Prop51ColorIndex
 90
      256
102
RTVSPost2010Prop51ColorRGB
 90
-16777216
102
RTVSPost2010PropOp51
 70
     0
102
RTVSPost2010Prop52
140
1.0
102
RTVSPost2010PropOp52
 70
     0
102
RTVSPost2010Prop53
 90
        2
102
RTVSPost2010PropOp53
 70
     1
102
RTVSPost2010Prop54
  1
strokes_ogs.tif
102
RTVSPost2010PropOp54
 70
     1
102
RTVSPost2010Prop55
280
     0
102
RTVSPost2010PropOp55
 70
     1
102
RTVSPost2010Prop56
140
1.0
102
RTVSPost2010PropOp56
 70
     1
102
RTVSPost2010Prop57
140
1.0
102
RTVSPost2010PropOp57
 70
     1
  0
XRECORD
  5
262
102
{ACAD_REACTORS
330
261
102
}
330
261
100
AcDbXrecord
280
     1
102
RTVSPropertyOp0
 70
     1
102
RTVSPropertyOp1
 70
     1
102
RTVSPropertyOp2
 70
     1
102
RTVSPropertyOp3
 70
     1
102
RTVSPropertyOp4
 70
     1
102
RTVSPropertyOp5
 70
     1
102
RTVSPropertyOp6
 70
     1
102
RTVSPropertyOp7
 70
     1
102
RTVSPropertyOp8
 70
     1
102
RTVSPropertyOp9
 70
     1
102
RTVSPropertyOp10
 70
     1
102
RTVSPropertyOp11
 70
     1
102
RTVSPropertyOp12
 70
     1
102
RTVSPropertyOp13
 70
     1
102
RTVSPropertyOp14
 70
     1
102
RTVSPropertyOp15
 70
     1
102
RTVSPropertyOp16
 70
     1
102
RTVSPropertyOp17
 70
     1
102
RTVSPropertyOp18
 70
     1
102
RTVSPropertyOp19
 70
     1
102
RTVSPropertyOp20
 70
     1
102
RTVSPropertyOp21
 70
     1
102
RTVSPropertyOp22
 70
     1
102
RTVSPropertyOp23
 70
     1
102
RTVSPropertyOp24
 70
     1
102
RTVSPropertyOp25
 70
     1
102
RTVSPropertyOp26
 70
     1
102
RTVSPropertyOp27
 70
     1
102
RTVSPropertyOp28
 70
     1
102
RTVSPropertyOp29
 70
     1
102
RTVSPropertyOp30
 70
     1
102
RTVSPropertyOp31
 70
     1
102
RTVSPropertyOp32
 70
     1
102
RTVSPropertyOp33
 70
     1
102
RTVSPropertyOp34
 70
     1
102
RTVSPropertyOp35
 70
     1
102
RTVSPropertyOp36
 70
     1
102
RTVSPropertyOp37
 70
     1
102
RTVSPropertyOp38
 70
     1
102
RTVSPropertyOp39
 70
     1
102
RTVSPropertyOp40
 70
     1
102
RTVSPropertyOp41
 70
     1
102
RTVSPropertyOp42
 70
     1
102
RTVSPropertyOp43
 70
     1
102
RTVSPropertyOp44
 70
     1
102
RTVSPropertyOp45
 70
     1
102
RTVSPropertyOp46
 70
     1
102
RTVSPropertyOp47
 70
     1
102
RTVSPropertyOp48
 70
     1
102
RTVSPropertyOp49
 70
     1
102
RTVSPropertyOp50
 70
     1
102
RTVSPropertyOp51
 70
     0
102
RTVSPropertyOp52
 70
     0
102
RTVSPropertyOp53
 70
     1
102
RTVSPropertyOp54
 70
     1
102
RTVSPropertyOp55
 70
     1
102
RTVSPropertyOp56
 70
     1
102
RTVSPropertyOp57
 70
     1
102
RTVSPost2010Prop28
280
     0
102
RTVSPost2010PropOp28
 70
     1
102
RTVSPost2010Prop29
280
     1
102
RTVSPost2010PropOp29
 70
     1
102
RTVSPost2010Prop30
280
     1
102
RTVSPost2010PropOp30
 70
     1
102
RTVSPost2010Prop31
280
     0
102
RTVSPost2010PropOp31
 70
     1
102
RTVSPost2010Prop32
280
     0
102
RTVSPost2010PropOp32
 70
     1
102
RTVSPost2010Prop33
280
     0
102
RTVSPost2010PropOp33
 70
     1
102
RTVSPost2010Prop34
280
     0
102
RTVSPost2010PropOp34
 70
     1
102
RTVSPost2010Prop35
280
     0
102
RTVSPost2010PropOp35
 70
     1
102
RTVSPost2010Prop36
280
     0
102
RTVSPost2010PropOp36
 70
     1
102
RTVSPost2010Prop37
 90
       50
102
RTVSPost2010PropOp37
 70
     1
102
RTVSPost2010Prop38
140
0.0
102
RTVSPost2010PropOp38
 70
     1
102
RTVSPost2010Prop39
140
1.0
102
RTVSPost2010PropOp39
 70
     1
102
RTVSPost2010Prop40
 90
        0
102
RTVSPost2010PropOp40
 70
     1
102
RTVSPost2010Prop41ColorIndex
 90
       18
102
RTVSPost2010Prop41ColorRGB
 90
        0
102
RTVSPost2010PropOp41
 70
     1
102
RTVSPost2010Prop42
 90
       50
102
RTVSPost2010PropOp42
 70
     1
102
RTVSPost2010Prop43
 90
        3
102
RTVSPost2010PropOp43
 70
     1
102
RTVSPost2010Prop44ColorIndex
 90
        5
102
RTVSPost2010Prop44ColorRGB
 90
      255
102
RTVSPost2010PropOp44
 70
     1
102
RTVSPost2010Prop45
280
     0
102
RTVSPost2010PropOp45
 70
     1
102
RTVSPost2010Prop46
 90
       50
102
RTVSPost2010PropOp46
 70
     1
102
RTVSPost2010Prop47
 90
       50
102
RTVSPost2010PropOp47
 70
     1
102
RTVSPost2010Prop48
 90
       50
102
RTVSPost2010PropOp48
 70
     1
102
RTVSPost2010Prop49
280
     0
102
RTVSPost2010PropOp49
 70
     1
102
RTVSPost2010Prop50
 90
       50
102
RTVSPost2010PropOp50
 70
     1
102
RTVSPost2010Prop51ColorIndex
 90
      256
102
RTVSPost2010Prop51ColorRGB
 90
-16777216
102
RTVSPost2010PropOp51
 70
     0
102
RTVSPost2010Prop52
140
1.0
102
RTVSPost2010PropOp52
 70
     0
102
RTVSPost2010Prop53
 90
        2
102
RTVSPost2010PropOp53
 70
     1
102
RTVSPost2010Prop54
  1
strokes_ogs.tif
102
RTVSPost2010PropOp54
 70
     1
102
RTVSPost2010Prop55
280
     0
102
RTVSPost2010PropOp55
 70
     1
102
RTVSPost2010Prop56
140
1.0
102
RTVSPost2010PropOp56
 70
     1
102
RTVSPost2010Prop57
140
1.0
102
RTVSPost2010PropOp57
 70
     1
  0
XRECORD
  5
26A
102
{ACAD_REACTORS
330
269
102
}
330
269
100
AcDbXrecord
280
     1
102
RTVSPropertyOp0
 70
     1
102
RTVSPropertyOp1
 70
     1
102
RTVSPropertyOp2
 70
     1
102
RTVSPropertyOp3
 70
     1
102
RTVSPropertyOp4
 70
     1
102
RTVSPropertyOp5
 70
     1
102
RTVSPropertyOp6
 70
     1
102
RTVSPropertyOp7
 70
     1
102
RTVSPropertyOp8
 70
     1
102
RTVSPropertyOp9
 70
     1
102
RTVSPropertyOp10
 70
     1
102
RTVSPropertyOp11
 70
     1
102
RTVSPropertyOp12
 70
     1
102
RTVSPropertyOp13
 70
     1
102
RTVSPropertyOp14
 70
     1
102
RTVSPropertyOp15
 70
     1
102
RTVSPropertyOp16
 70
     1
102
RTVSPropertyOp17
 70
     1
102
RTVSPropertyOp18
 70
     1
102
RTVSPropertyOp19
 70
     1
102
RTVSPropertyOp20
 70
     1
102
RTVSPropertyOp21
 70
     1
102
RTVSPropertyOp22
 70
     1
102
RTVSPropertyOp23
 70
     1
102
RTVSPropertyOp24
 70
     1
102
RTVSPropertyOp25
 70
     1
102
RTVSPropertyOp26
 70
     1
102
RTVSPropertyOp27
 70
     1
102
RTVSPropertyOp28
 70
     1
102
RTVSPropertyOp29
 70
     1
102
RTVSPropertyOp30
 70
     1
102
RTVSPropertyOp31
 70
     1
102
RTVSPropertyOp32
 70
     1
102
RTVSPropertyOp33
 70
     1
102
RTVSPropertyOp34
 70
     1
102
RTVSPropertyOp35
 70
     1
102
RTVSPropertyOp36
 70
     1
102
RTVSPropertyOp37
 70
     1
102
RTVSPropertyOp38
 70
     1
102
RTVSPropertyOp39
 70
     1
102
RTVSPropertyOp40
 70
     1
102
RTVSPropertyOp41
 70
     1
102
RTVSPropertyOp42
 70
     1
102
RTVSPropertyOp43
 70
     1
102
RTVSPropertyOp44
 70
     1
102
RTVSPropertyOp45
 70
     1
102
RTVSPropertyOp46
 70
     1
102
RTVSPropertyOp47
 70
     1
102
RTVSPropertyOp48
 70
     1
102
RTVSPropertyOp49
 70
     1
102
RTVSPropertyOp50
 70
     1
102
RTVSPropertyOp51
 70
     0
102
RTVSPropertyOp52
 70
     0
102
RTVSPropertyOp53
 70
     1
102
RTVSPropertyOp54
 70
     1
102
RTVSPropertyOp55
 70
     1
102
RTVSPropertyOp56
 70
     1
102
RTVSPropertyOp57
 70
     1
102
RTVSPost2010Prop28
280
     0
102
RTVSPost2010PropOp28
 70
     1
102
RTVSPost2010Prop29
280
     1
102
RTVSPost2010PropOp29
 70
     1
102
RTVSPost2010Prop30
280
     1
102
RTVSPost2010PropOp30
 70
     1
102
RTVSPost2010Prop31
280
     0
102
RTVSPost2010PropOp31
 70
     1
102
RTVSPost2010Prop32
280
     0
102
RTVSPost2010PropOp32
 70
     1
102
RTVSPost2010Prop33
280
     0
102
RTVSPost2010PropOp33
 70
     1
102
RTVSPost2010Prop34
280
     0
102
RTVSPost2010PropOp34
 70
     1
102
RTVSPost2010Prop35
280
     0
102
RTVSPost2010PropOp35
 70
     1
102
RTVSPost2010Prop36
280
     0
102
RTVSPost2010PropOp36
 70
     1
102
RTVSPost2010Prop37
 90
       50
102
RTVSPost2010PropOp37
 70
     1
102
RTVSPost2010Prop38
140
0.0
102
RTVSPost2010PropOp38
 70
     1
102
RTVSPost2010Prop39
140
1.0
102
RTVSPost2010PropOp39
 70
     1
102
RTVSPost2010Prop40
 90
        0
102
RTVSPost2010PropOp40
 70
     1
102
RTVSPost2010Prop41ColorIndex
 90
       18
102
RTVSPost2010Prop41ColorRGB
 90
        0
102
RTVSPost2010PropOp41
 70
     1
102
RTVSPost2010Prop42
 90
       50
102
RTVSPost2010PropOp42
 70
     1
102
RTVSPost2010Prop43
 90
        3
102
RTVSPost2010PropOp43
 70
     1
102
RTVSPost2010Prop44ColorIndex
 90
        5
102
RTVSPost2010Prop44ColorRGB
 90
      255
102
RTVSPost2010PropOp44
 70
     1
102
RTVSPost2010Prop45
280
     0
102
RTVSPost2010PropOp45
 70
     1
102
RTVSPost2010Prop46
 90
       50
102
RTVSPost2010PropOp46
 70
     1
102
RTVSPost2010Prop47
 90
       50
102
RTVSPost2010PropOp47
 70
     1
102
RTVSPost2010Prop48
 90
       50
102
RTVSPost2010PropOp48
 70
     1
102
RTVSPost2010Prop49
280
     0
102
RTVSPost2010PropOp49
 70
     1
102
RTVSPost2010Prop50
 90
       50
102
RTVSPost2010PropOp50
 70
     1
102
RTVSPost2010Prop51ColorIndex
 90
      256
102
RTVSPost2010Prop51ColorRGB
 90
-16777216
102
RTVSPost2010PropOp51
 70
     0
102
RTVSPost2010Prop52
140
1.0
102
RTVSPost2010PropOp52
 70
     0
102
RTVSPost2010Prop53
 90
        2
102
RTVSPost2010PropOp53
 70
     1
102
RTVSPost2010Prop54
  1
strokes_ogs.tif
102
RTVSPost2010PropOp54
 70
     1
102
RTVSPost2010Prop55
280
     0
102
RTVSPost2010PropOp55
 70
     1
102
RTVSPost2010Prop56
140
1.0
102
RTVSPost2010PropOp56
 70
     1
102
RTVSPost2010Prop57
140
1.0
102
RTVSPost2010PropOp57
 70
     1
  0
XRECORD
  5
25E
102
{ACAD_REACTORS
330
25D
102
}
330
25D
100
AcDbXrecord
280
     1
102
RTVSPropertyOp0
 70
     1
102
RTVSPropertyOp1
 70
     1
102
RTVSPropertyOp2
 70
     1
102
RTVSPropertyOp3
 70
     1
102
RTVSPropertyOp4
 70
     1
102
RTVSPropertyOp5
 70
     1
102
RTVSPropertyOp6
 70
     1
102
RTVSPropertyOp7
 70
     1
102
RTVSPropertyOp8
 70
     1
102
RTVSPropertyOp9
 70
     1
102
RTVSPropertyOp10
 70
     1
102
RTVSPropertyOp11
 70
     1
102
RTVSPropertyOp12
 70
     1
102
RTVSPropertyOp13
 70
     1
102
RTVSPropertyOp14
 70
     1
102
RTVSPropertyOp15
 70
     1
102
RTVSPropertyOp16
 70
     1
102
RTVSPropertyOp17
 70
     1
102
RTVSPropertyOp18
 70
     1
102
RTVSPropertyOp19
 70
     1
102
RTVSPropertyOp20
 70
     1
102
RTVSPropertyOp21
 70
     1
102
RTVSPropertyOp22
 70
     1
102
RTVSPropertyOp23
 70
     1
102
RTVSPropertyOp24
 70
     1
102
RTVSPropertyOp25
 70
     1
102
RTVSPropertyOp26
 70
     1
102
RTVSPropertyOp27
 70
     1
102
RTVSPropertyOp28
 70
     1
102
RTVSPropertyOp29
 70
     1
102
RTVSPropertyOp30
 70
     1
102
RTVSPropertyOp31
 70
     1
102
RTVSPropertyOp32
 70
     1
102
RTVSPropertyOp33
 70
     1
102
RTVSPropertyOp34
 70
     1
102
RTVSPropertyOp35
 70
     1
102
RTVSPropertyOp36
 70
     1
102
RTVSPropertyOp37
 70
     1
102
RTVSPropertyOp38
 70
     1
102
RTVSPropertyOp39
 70
     1
102
RTVSPropertyOp40
 70
     1
102
RTVSPropertyOp41
 70
     1
102
RTVSPropertyOp42
 70
     1
102
RTVSPropertyOp43
 70
     1
102
RTVSPropertyOp44
 70
     1
102
RTVSPropertyOp45
 70
     1
102
RTVSPropertyOp46
 70
     1
102
RTVSPropertyOp47
 70
     1
102
RTVSPropertyOp48
 70
     1
102
RTVSPropertyOp49
 70
     1
102
RTVSPropertyOp50
 70
     1
102
RTVSPropertyOp51
 70
     0
102
RTVSPropertyOp52
 70
     0
102
RTVSPropertyOp53
 70
     1
102
RTVSPropertyOp54
 70
     1
102
RTVSPropertyOp55
 70
     1
102
RTVSPropertyOp56
 70
     1
102
RTVSPropertyOp57
 70
     1
102
RTVSPost2010Prop28
280
     0
102
RTVSPost2010PropOp28
 70
     1
102
RTVSPost2010Prop29
280
     1
102
RTVSPost2010PropOp29
 70
     1
102
RTVSPost2010Prop30
280
     1
102
RTVSPost2010PropOp30
 70
     1
102
RTVSPost2010Prop31
280
     0
102
RTVSPost2010PropOp31
 70
     1
102
RTVSPost2010Prop32
280
     0
102
RTVSPost2010PropOp32
 70
     1
102
RTVSPost2010Prop33
280
     0
102
RTVSPost2010PropOp33
 70
     1
102
RTVSPost2010Prop34
280
     0
102
RTVSPost2010PropOp34
 70
     1
102
RTVSPost2010Prop35
280
     0
102
RTVSPost2010PropOp35
 70
     1
102
RTVSPost2010Prop36
280
     0
102
RTVSPost2010PropOp36
 70
     1
102
RTVSPost2010Prop37
 90
       50
102
RTVSPost2010PropOp37
 70
     1
102
RTVSPost2010Prop38
140
0.0
102
RTVSPost2010PropOp38
 70
     1
102
RTVSPost2010Prop39
140
1.0
102
RTVSPost2010PropOp39
 70
     1
102
RTVSPost2010Prop40
 90
        0
102
RTVSPost2010PropOp40
 70
     1
102
RTVSPost2010Prop41ColorIndex
 90
       18
102
RTVSPost2010Prop41ColorRGB
 90
        0
102
RTVSPost2010PropOp41
 70
     1
102
RTVSPost2010Prop42
 90
       50
102
RTVSPost2010PropOp42
 70
     1
102
RTVSPost2010Prop43
 90
        3
102
RTVSPost2010PropOp43
 70
     1
102
RTVSPost2010Prop44ColorIndex
 90
        5
102
RTVSPost2010Prop44ColorRGB
 90
      255
102
RTVSPost2010PropOp44
 70
     1
102
RTVSPost2010Prop45
280
     0
102
RTVSPost2010PropOp45
 70
     1
102
RTVSPost2010Prop46
 90
       50
102
RTVSPost2010PropOp46
 70
     1
102
RTVSPost2010Prop47
 90
       50
102
RTVSPost2010PropOp47
 70
     1
102
RTVSPost2010Prop48
 90
       50
102
RTVSPost2010PropOp48
 70
     1
102
RTVSPost2010Prop49
280
     0
102
RTVSPost2010PropOp49
 70
     1
102
RTVSPost2010Prop50
 90
       50
102
RTVSPost2010PropOp50
 70
     1
102
RTVSPost2010Prop51ColorIndex
 90
      256
102
RTVSPost2010Prop51ColorRGB
 90
-16777216
102
RTVSPost2010PropOp51
 70
     0
102
RTVSPost2010Prop52
140
1.0
102
RTVSPost2010PropOp52
 70
     0
102
RTVSPost2010Prop53
 90
        2
102
RTVSPost2010PropOp53
 70
     1
102
RTVSPost2010Prop54
  1
strokes_ogs.tif
102
RTVSPost2010PropOp54
 70
     1
102
RTVSPost2010Prop55
280
     0
102
RTVSPost2010PropOp55
 70
     1
102
RTVSPost2010Prop56
140
1.0
102
RTVSPost2010PropOp56
 70
     1
102
RTVSPost2010Prop57
140
1.0
102
RTVSPost2010PropOp57
 70
     1
  0
XRECORD
  5
260
102
{ACAD_REACTORS
330
25F
102
}
330
25F
100
AcDbXrecord
280
     1
102
RTVSPropertyOp0
 70
     1
102
RTVSPropertyOp1
 70
     1
102
RTVSPropertyOp2
 70
     1
102
RTVSPropertyOp3
 70
     1
102
RTVSPropertyOp4
 70
     1
102
RTVSPropertyOp5
 70
     1
102
RTVSPropertyOp6
 70
     1
102
RTVSPropertyOp7
 70
     1
102
RTVSPropertyOp8
 70
     1
102
RTVSPropertyOp9
 70
     1
102
RTVSPropertyOp10
 70
     1
102
RTVSPropertyOp11
 70
     1
102
RTVSPropertyOp12
 70
     1
102
RTVSPropertyOp13
 70
     1
102
RTVSPropertyOp14
 70
     1
102
RTVSPropertyOp15
 70
     1
102
RTVSPropertyOp16
 70
     1
102
RTVSPropertyOp17
 70
     1
102
RTVSPropertyOp18
 70
     1
102
RTVSPropertyOp19
 70
     1
102
RTVSPropertyOp20
 70
     1
102
RTVSPropertyOp21
 70
     1
102
RTVSPropertyOp22
 70
     1
102
RTVSPropertyOp23
 70
     1
102
RTVSPropertyOp24
 70
     1
102
RTVSPropertyOp25
 70
     1
102
RTVSPropertyOp26
 70
     1
102
RTVSPropertyOp27
 70
     1
102
RTVSPropertyOp28
 70
     1
102
RTVSPropertyOp29
 70
     1
102
RTVSPropertyOp30
 70
     1
102
RTVSPropertyOp31
 70
     1
102
RTVSPropertyOp32
 70
     1
102
RTVSPropertyOp33
 70
     1
102
RTVSPropertyOp34
 70
     1
102
RTVSPropertyOp35
 70
     1
102
RTVSPropertyOp36
 70
     1
102
RTVSPropertyOp37
 70
     1
102
RTVSPropertyOp38
 70
     1
102
RTVSPropertyOp39
 70
     1
102
RTVSPropertyOp40
 70
     1
102
RTVSPropertyOp41
 70
     1
102
RTVSPropertyOp42
 70
     1
102
RTVSPropertyOp43
 70
     1
102
RTVSPropertyOp44
 70
     1
102
RTVSPropertyOp45
 70
     1
102
RTVSPropertyOp46
 70
     1
102
RTVSPropertyOp47
 70
     1
102
RTVSPropertyOp48
 70
     1
102
RTVSPropertyOp49
 70
     1
102
RTVSPropertyOp50
 70
     1
102
RTVSPropertyOp51
 70
     0
102
RTVSPropertyOp52
 70
     0
102
RTVSPropertyOp53
 70
     1
102
RTVSPropertyOp54
 70
     1
102
RTVSPropertyOp55
 70
     1
102
RTVSPropertyOp56
 70
     1
102
RTVSPropertyOp57
 70
     1
102
RTVSPost2010Prop28
280
     0
102
RTVSPost2010PropOp28
 70
     1
102
RTVSPost2010Prop29
280
     1
102
RTVSPost2010PropOp29
 70
     1
102
RTVSPost2010Prop30
280
     1
102
RTVSPost2010PropOp30
 70
     1
102
RTVSPost2010Prop31
280
     0
102
RTVSPost2010PropOp31
 70
     1
102
RTVSPost2010Prop32
280
     0
102
RTVSPost2010PropOp32
 70
     1
102
RTVSPost2010Prop33
280
     0
102
RTVSPost2010PropOp33
 70
     1
102
RTVSPost2010Prop34
280
     0
102
RTVSPost2010PropOp34
 70
     1
102
RTVSPost2010Prop35
280
     0
102
RTVSPost2010PropOp35
 70
     1
102
RTVSPost2010Prop36
280
     0
102
RTVSPost2010PropOp36
 70
     1
102
RTVSPost2010Prop37
 90
       50
102
RTVSPost2010PropOp37
 70
     1
102
RTVSPost2010Prop38
140
0.0
102
RTVSPost2010PropOp38
 70
     1
102
RTVSPost2010Prop39
140
1.0
102
RTVSPost2010PropOp39
 70
     1
102
RTVSPost2010Prop40
 90
        0
102
RTVSPost2010PropOp40
 70
     1
102
RTVSPost2010Prop41ColorIndex
 90
       18
102
RTVSPost2010Prop41ColorRGB
 90
        0
102
RTVSPost2010PropOp41
 70
     1
102
RTVSPost2010Prop42
 90
       50
102
RTVSPost2010PropOp42
 70
     1
102
RTVSPost2010Prop43
 90
        3
102
RTVSPost2010PropOp43
 70
     1
102
RTVSPost2010Prop44ColorIndex
 90
        5
102
RTVSPost2010Prop44ColorRGB
 90
      255
102
RTVSPost2010PropOp44
 70
     1
102
RTVSPost2010Prop45
280
     0
102
RTVSPost2010PropOp45
 70
     1
102
RTVSPost2010Prop46
 90
       50
102
RTVSPost2010PropOp46
 70
     1
102
RTVSPost2010Prop47
 90
       50
102
RTVSPost2010PropOp47
 70
     1
102
RTVSPost2010Prop48
 90
       50
102
RTVSPost2010PropOp48
 70
     1
102
RTVSPost2010Prop49
280
     0
102
RTVSPost2010PropOp49
 70
     1
102
RTVSPost2010Prop50
 90
       50
102
RTVSPost2010PropOp50
 70
     1
102
RTVSPost2010Prop51ColorIndex
 90
      256
102
RTVSPost2010Prop51ColorRGB
 90
-16777216
102
RTVSPost2010PropOp51
 70
     0
102
RTVSPost2010Prop52
140
1.0
102
RTVSPost2010PropOp52
 70
     0
102
RTVSPost2010Prop53
 90
        2
102
RTVSPost2010PropOp53
 70
     1
102
RTVSPost2010Prop54
  1
strokes_ogs.tif
102
RTVSPost2010PropOp54
 70
     1
102
RTVSPost2010Prop55
280
     0
102
RTVSPost2010PropOp55
 70
     1
102
RTVSPost2010Prop56
140
1.0
102
RTVSPost2010PropOp56
 70
     1
102
RTVSPost2010Prop57
140
1.0
102
RTVSPost2010PropOp57
 70
     1
  0
XRECORD
  5
270
102
{ACAD_REACTORS
330
26F
102
}
330
26F
100
AcDbXrecord
280
     1
102
RTVSPropertyOp0
 70
     0
102
RTVSPropertyOp1
 70
     0
102
RTVSPropertyOp2
 70
     0
102
RTVSPropertyOp3
 70
     0
102
RTVSPropertyOp4
 70
     0
102
RTVSPropertyOp5
 70
     0
102
RTVSPropertyOp6
 70
     0
102
RTVSPropertyOp7
 70
     0
102
RTVSPropertyOp8
 70
     0
102
RTVSPropertyOp9
 70
     0
102
RTVSPropertyOp10
 70
     0
102
RTVSPropertyOp11
 70
     0
102
RTVSPropertyOp12
 70
     0
102
RTVSPropertyOp13
 70
     0
102
RTVSPropertyOp14
 70
     2
102
RTVSPropertyOp15
 70
     0
102
RTVSPropertyOp16
 70
     0
102
RTVSPropertyOp17
 70
     0
102
RTVSPropertyOp18
 70
     0
102
RTVSPropertyOp19
 70
     0
102
RTVSPropertyOp20
 70
     0
102
RTVSPropertyOp21
 70
     0
102
RTVSPropertyOp22
 70
     0
102
RTVSPropertyOp23
 70
     0
102
RTVSPropertyOp24
 70
     0
102
RTVSPropertyOp25
 70
     0
102
RTVSPropertyOp26
 70
     0
102
RTVSPropertyOp27
 70
     0
102
RTVSPropertyOp28
 70
     0
102
RTVSPropertyOp29
 70
     0
102
RTVSPropertyOp30
 70
     0
102
RTVSPropertyOp31
 70
     0
102
RTVSPropertyOp32
 70
     0
102
RTVSPropertyOp33
 70
     0
102
RTVSPropertyOp34
 70
     0
102
RTVSPropertyOp35
 70
     0
102
RTVSPropertyOp36
 70
     0
102
RTVSPropertyOp37
 70
     0
102
RTVSPropertyOp38
 70
     0
102
RTVSPropertyOp39
 70
     0
102
RTVSPropertyOp40
 70
     0
102
RTVSPropertyOp41
 70
     0
102
RTVSPropertyOp42
 70
     0
102
RTVSPropertyOp43
 70
     0
102
RTVSPropertyOp44
 70
     0
102
RTVSPropertyOp45
 70
     0
102
RTVSPropertyOp46
 70
     0
102
RTVSPropertyOp47
 70
     0
102
RTVSPropertyOp48
 70
     0
102
RTVSPropertyOp49
 70
     0
102
RTVSPropertyOp50
 70
     0
102
RTVSPropertyOp51
 70
     0
102
RTVSPropertyOp52
 70
     0
102
RTVSPropertyOp53
 70
     0
102
RTVSPropertyOp54
 70
     0
102
RTVSPropertyOp55
 70
     0
102
RTVSPropertyOp56
 70
     0
102
RTVSPropertyOp57
 70
     0
102
RTVSPost2010Prop28
280
     0
102
RTVSPost2010PropOp28
 70
     0
102
RTVSPost2010Prop29
280
     1
102
RTVSPost2010PropOp29
 70
     0
102
RTVSPost2010Prop30
280
     1
102
RTVSPost2010PropOp30
 70
     0
102
RTVSPost2010Prop31
280
     0
102
RTVSPost2010PropOp31
 70
     0
102
RTVSPost2010Prop32
280
     0
102
RTVSPost2010PropOp32
 70
     0
102
RTVSPost2010Prop33
280
     0
102
RTVSPost2010PropOp33
 70
     0
102
RTVSPost2010Prop34
280
     0
102
RTVSPost2010PropOp34
 70
     0
102
RTVSPost2010Prop35
280
     0
102
RTVSPost2010PropOp35
 70
     0
102
RTVSPost2010Prop36
280
     0
102
RTVSPost2010PropOp36
 70
     0
102
RTVSPost2010Prop37
 90
       50
102
RTVSPost2010PropOp37
 70
     0
102
RTVSPost2010Prop38
140
0.0
102
RTVSPost2010PropOp38
 70
     0
102
RTVSPost2010Prop39
140
1.0
102
RTVSPost2010PropOp39
 70
     0
102
RTVSPost2010Prop40
 90
        0
102
RTVSPost2010PropOp40
 70
     0
102
RTVSPost2010Prop41ColorIndex
 90
       18
102
RTVSPost2010Prop41ColorRGB
 90
        0
102
RTVSPost2010PropOp41
 70
     0
102
RTVSPost2010Prop42
 90
       50
102
RTVSPost2010PropOp42
 70
     0
102
RTVSPost2010Prop43
 90
        3
102
RTVSPost2010PropOp43
 70
     0
102
RTVSPost2010Prop44ColorIndex
 90
        5
102
RTVSPost2010Prop44ColorRGB
 90
      255
102
RTVSPost2010PropOp44
 70
     0
102
RTVSPost2010Prop45
280
     0
102
RTVSPost2010PropOp45
 70
     0
102
RTVSPost2010Prop46
 90
       50
102
RTVSPost2010PropOp46
 70
     0
102
RTVSPost2010Prop47
 90
       50
102
RTVSPost2010PropOp47
 70
     0
102
RTVSPost2010Prop48
 90
       50
102
RTVSPost2010PropOp48
 70
     0
102
RTVSPost2010Prop49
280
     0
102
RTVSPost2010PropOp49
 70
     0
102
RTVSPost2010Prop50
 90
       50
102
RTVSPost2010PropOp50
 70
     0
102
RTVSPost2010Prop51ColorIndex
 90
      256
102
RTVSPost2010Prop51ColorRGB
 90
-16777216
102
RTVSPost2010PropOp51
 70
     0
102
RTVSPost2010Prop52
140
1.0
102
RTVSPost2010PropOp52
 70
     0
102
RTVSPost2010Prop53
 90
        2
102
RTVSPost2010PropOp53
 70
     0
102
RTVSPost2010Prop54
  1
strokes_ogs.tif
102
RTVSPost2010PropOp54
 70
     0
102
RTVSPost2010Prop55
280
     0
102
RTVSPost2010PropOp55
 70
     0
102
RTVSPost2010Prop56
140
1.0
102
RTVSPost2010PropOp56
 70
     0
102
RTVSPost2010Prop57
140
1.0
102
RTVSPost2010PropOp57
 70
     0
  0
XRECORD
  5
268
102
{ACAD_REACTORS
330
267
102
}
330
267
100
AcDbXrecord
280
     1
102
RTVSPropertyOp0
 70
     1
102
RTVSPropertyOp1
 70
     1
102
RTVSPropertyOp2
 70
     1
102
RTVSPropertyOp3
 70
     1
102
RTVSPropertyOp4
 70
     1
102
RTVSPropertyOp5
 70
     1
102
RTVSPropertyOp6
 70
     1
102
RTVSPropertyOp7
 70
     1
102
RTVSPropertyOp8
 70
     1
102
RTVSPropertyOp9
 70
     1
102
RTVSPropertyOp10
 70
     1
102
RTVSPropertyOp11
 70
     1
102
RTVSPropertyOp12
 70
     1
102
RTVSPropertyOp13
 70
     1
102
RTVSPropertyOp14
 70
     1
102
RTVSPropertyOp15
 70
     1
102
RTVSPropertyOp16
 70
     1
102
RTVSPropertyOp17
 70
     1
102
RTVSPropertyOp18
 70
     1
102
RTVSPropertyOp19
 70
     1
102
RTVSPropertyOp20
 70
     1
102
RTVSPropertyOp21
 70
     1
102
RTVSPropertyOp22
 70
     1
102
RTVSPropertyOp23
 70
     1
102
RTVSPropertyOp24
 70
     1
102
RTVSPropertyOp25
 70
     1
102
RTVSPropertyOp26
 70
     1
102
RTVSPropertyOp27
 70
     1
102
RTVSPropertyOp28
 70
     1
102
RTVSPropertyOp29
 70
     1
102
RTVSPropertyOp30
 70
     1
102
RTVSPropertyOp31
 70
     1
102
RTVSPropertyOp32
 70
     1
102
RTVSPropertyOp33
 70
     1
102
RTVSPropertyOp34
 70
     1
102
RTVSPropertyOp35
 70
     1
102
RTVSPropertyOp36
 70
     1
102
RTVSPropertyOp37
 70
     1
102
RTVSPropertyOp38
 70
     1
102
RTVSPropertyOp39
 70
     1
102
RTVSPropertyOp40
 70
     1
102
RTVSPropertyOp41
 70
     1
102
RTVSPropertyOp42
 70
     1
102
RTVSPropertyOp43
 70
     1
102
RTVSPropertyOp44
 70
     1
102
RTVSPropertyOp45
 70
     1
102
RTVSPropertyOp46
 70
     1
102
RTVSPropertyOp47
 70
     1
102
RTVSPropertyOp48
 70
     1
102
RTVSPropertyOp49
 70
     1
102
RTVSPropertyOp50
 70
     1
102
RTVSPropertyOp51
 70
     0
102
RTVSPropertyOp52
 70
     0
102
RTVSPropertyOp53
 70
     1
102
RTVSPropertyOp54
 70
     1
102
RTVSPropertyOp55
 70
     1
102
RTVSPropertyOp56
 70
     1
102
RTVSPropertyOp57
 70
     1
102
RTVSPost2010Prop28
280
     0
102
RTVSPost2010PropOp28
 70
     1
102
RTVSPost2010Prop29
280
     1
102
RTVSPost2010PropOp29
 70
     1
102
RTVSPost2010Prop30
280
     1
102
RTVSPost2010PropOp30
 70
     1
102
RTVSPost2010Prop31
280
     0
102
RTVSPost2010PropOp31
 70
     1
102
RTVSPost2010Prop32
280
     0
102
RTVSPost2010PropOp32
 70
     1
102
RTVSPost2010Prop33
280
     0
102
RTVSPost2010PropOp33
 70
     1
102
RTVSPost2010Prop34
280
     0
102
RTVSPost2010PropOp34
 70
     1
102
RTVSPost2010Prop35
280
     0
102
RTVSPost2010PropOp35
 70
     1
102
RTVSPost2010Prop36
280
     0
102
RTVSPost2010PropOp36
 70
     1
102
RTVSPost2010Prop37
 90
       50
102
RTVSPost2010PropOp37
 70
     1
102
RTVSPost2010Prop38
140
0.0
102
RTVSPost2010PropOp38
 70
     1
102
RTVSPost2010Prop39
140
1.0
102
RTVSPost2010PropOp39
 70
     1
102
RTVSPost2010Prop40
 90
        0
102
RTVSPost2010PropOp40
 70
     1
102
RTVSPost2010Prop41ColorIndex
 90
       18
102
RTVSPost2010Prop41ColorRGB
 90
        0
102
RTVSPost2010PropOp41
 70
     1
102
RTVSPost2010Prop42
 90
       50
102
RTVSPost2010PropOp42
 70
     1
102
RTVSPost2010Prop43
 90
        3
102
RTVSPost2010PropOp43
 70
     1
102
RTVSPost2010Prop44ColorIndex
 90
        5
102
RTVSPost2010Prop44ColorRGB
 90
      255
102
RTVSPost2010PropOp44
 70
     1
102
RTVSPost2010Prop45
280
     0
102
RTVSPost2010PropOp45
 70
     1
102
RTVSPost2010Prop46
 90
       50
102
RTVSPost2010PropOp46
 70
     1
102
RTVSPost2010Prop47
 90
       50
102
RTVSPost2010PropOp47
 70
     1
102
RTVSPost2010Prop48
 90
       50
102
RTVSPost2010PropOp48
 70
     1
102
RTVSPost2010Prop49
280
     0
102
RTVSPost2010PropOp49
 70
     1
102
RTVSPost2010Prop50
 90
       50
102
RTVSPost2010PropOp50
 70
     1
102
RTVSPost2010Prop51ColorIndex
 90
      256
102
RTVSPost2010Prop51ColorRGB
 90
-16777216
102
RTVSPost2010PropOp51
 70
     0
102
RTVSPost2010Prop52
140
1.0
102
RTVSPost2010PropOp52
 70
     0
102
RTVSPost2010Prop53
 90
        2
102
RTVSPost2010PropOp53
 70
     1
102
RTVSPost2010Prop54
  1
strokes_ogs.tif
102
RTVSPost2010PropOp54
 70
     1
102
RTVSPost2010Prop55
280
     0
102
RTVSPost2010PropOp55
 70
     1
102
RTVSPost2010Prop56
140
1.0
102
RTVSPost2010PropOp56
 70
     1
102
RTVSPost2010Prop57
140
1.0
102
RTVSPost2010PropOp57
 70
     1
  0
XRECORD
  5
24C
102
{ACAD_REACTORS
330
24B
102
}
330
24B
100
AcDbXrecord
280
     1
102
RTVSPropertyOp0
 70
     1
102
RTVSPropertyOp1
 70
     1
102
RTVSPropertyOp2
 70
     1
102
RTVSPropertyOp3
 70
     1
102
RTVSPropertyOp4
 70
     1
102
RTVSPropertyOp5
 70
     1
102
RTVSPropertyOp6
 70
     1
102
RTVSPropertyOp7
 70
     1
102
RTVSPropertyOp8
 70
     1
102
RTVSPropertyOp9
 70
     1
102
RTVSPropertyOp10
 70
     1
102
RTVSPropertyOp11
 70
     1
102
RTVSPropertyOp12
 70
     1
102
RTVSPropertyOp13
 70
     1
102
RTVSPropertyOp14
 70
     1
102
RTVSPropertyOp15
 70
     1
102
RTVSPropertyOp16
 70
     1
102
RTVSPropertyOp17
 70
     1
102
RTVSPropertyOp18
 70
     1
102
RTVSPropertyOp19
 70
     1
102
RTVSPropertyOp20
 70
     1
102
RTVSPropertyOp21
 70
     1
102
RTVSPropertyOp22
 70
     1
102
RTVSPropertyOp23
 70
     1
102
RTVSPropertyOp24
 70
     1
102
RTVSPropertyOp25
 70
     1
102
RTVSPropertyOp26
 70
     1
102
RTVSPropertyOp27
 70
     1
102
RTVSPropertyOp28
 70
     1
102
RTVSPropertyOp29
 70
     1
102
RTVSPropertyOp30
 70
     1
102
RTVSPropertyOp31
 70
     1
102
RTVSPropertyOp32
 70
     1
102
RTVSPropertyOp33
 70
     1
102
RTVSPropertyOp34
 70
     1
102
RTVSPropertyOp35
 70
     1
102
RTVSPropertyOp36
 70
     1
102
RTVSPropertyOp37
 70
     1
102
RTVSPropertyOp38
 70
     1
102
RTVSPropertyOp39
 70
     1
102
RTVSPropertyOp40
 70
     1
102
RTVSPropertyOp41
 70
     1
102
RTVSPropertyOp42
 70
     1
102
RTVSPropertyOp43
 70
     1
102
RTVSPropertyOp44
 70
     1
102
RTVSPropertyOp45
 70
     1
102
RTVSPropertyOp46
 70
     1
102
RTVSPropertyOp47
 70
     1
102
RTVSPropertyOp48
 70
     1
102
RTVSPropertyOp49
 70
     1
102
RTVSPropertyOp50
 70
     1
102
RTVSPropertyOp51
 70
     0
102
RTVSPropertyOp52
 70
     0
102
RTVSPropertyOp53
 70
     1
102
RTVSPropertyOp54
 70
     1
102
RTVSPropertyOp55
 70
     1
102
RTVSPropertyOp56
 70
     1
102
RTVSPropertyOp57
 70
     1
102
RTVSPost2010Prop28
280
     0
102
RTVSPost2010PropOp28
 70
     1
102
RTVSPost2010Prop29
280
     1
102
RTVSPost2010PropOp29
 70
     1
102
RTVSPost2010Prop30
280
     1
102
RTVSPost2010PropOp30
 70
     1
102
RTVSPost2010Prop31
280
     0
102
RTVSPost2010PropOp31
 70
     1
102
RTVSPost2010Prop32
280
     0
102
RTVSPost2010PropOp32
 70
     1
102
RTVSPost2010Prop33
280
     0
102
RTVSPost2010PropOp33
 70
     1
102
RTVSPost2010Prop34
280
     0
102
RTVSPost2010PropOp34
 70
     1
102
RTVSPost2010Prop35
280
     0
102
RTVSPost2010PropOp35
 70
     1
102
RTVSPost2010Prop36
280
     0
102
RTVSPost2010PropOp36
 70
     1
102
RTVSPost2010Prop37
 90
       50
102
RTVSPost2010PropOp37
 70
     1
102
RTVSPost2010Prop38
140
0.0
102
RTVSPost2010PropOp38
 70
     1
102
RTVSPost2010Prop39
140
1.0
102
RTVSPost2010PropOp39
 70
     1
102
RTVSPost2010Prop40
 90
        0
102
RTVSPost2010PropOp40
 70
     1
102
RTVSPost2010Prop41ColorIndex
 90
       18
102
RTVSPost2010Prop41ColorRGB
 90
        0
102
RTVSPost2010PropOp41
 70
     1
102
RTVSPost2010Prop42
 90
       50
102
RTVSPost2010PropOp42
 70
     1
102
RTVSPost2010Prop43
 90
        3
102
RTVSPost2010PropOp43
 70
     1
102
RTVSPost2010Prop44ColorIndex
 90
        5
102
RTVSPost2010Prop44ColorRGB
 90
      255
102
RTVSPost2010PropOp44
 70
     1
102
RTVSPost2010Prop45
280
     0
102
RTVSPost2010PropOp45
 70
     1
102
RTVSPost2010Prop46
 90
       50
102
RTVSPost2010PropOp46
 70
     1
102
RTVSPost2010Prop47
 90
       50
102
RTVSPost2010PropOp47
 70
     1
102
RTVSPost2010Prop48
 90
       50
102
RTVSPost2010PropOp48
 70
     1
102
RTVSPost2010Prop49
280
     0
102
RTVSPost2010PropOp49
 70
     1
102
RTVSPost2010Prop50
 90
       50
102
RTVSPost2010PropOp50
 70
     1
102
RTVSPost2010Prop51ColorIndex
 90
      256
102
RTVSPost2010Prop51ColorRGB
 90
-16777216
102
RTVSPost2010PropOp51
 70
     0
102
RTVSPost2010Prop52
140
1.0
102
RTVSPost2010PropOp52
 70
     0
102
RTVSPost2010Prop53
 90
        2
102
RTVSPost2010PropOp53
 70
     1
102
RTVSPost2010Prop54
  1
strokes_ogs.tif
102
RTVSPost2010PropOp54
 70
     1
102
RTVSPost2010Prop55
280
     0
102
RTVSPost2010PropOp55
 70
     1
102
RTVSPost2010Prop56
140
1.0
102
RTVSPost2010PropOp56
 70
     1
102
RTVSPost2010Prop57
140
1.0
102
RTVSPost2010PropOp57
 70
     1
  0
XRECORD
  5
24E
102
{ACAD_REACTORS
330
24D
102
}
330
24D
100
AcDbXrecord
280
     1
102
RTVSPropertyOp0
 70
     1
102
RTVSPropertyOp1
 70
     1
102
RTVSPropertyOp2
 70
     1
102
RTVSPropertyOp3
 70
     1
102
RTVSPropertyOp4
 70
     1
102
RTVSPropertyOp5
 70
     1
102
RTVSPropertyOp6
 70
     1
102
RTVSPropertyOp7
 70
     1
102
RTVSPropertyOp8
 70
     1
102
RTVSPropertyOp9
 70
     1
102
RTVSPropertyOp10
 70
     1
102
RTVSPropertyOp11
 70
     1
102
RTVSPropertyOp12
 70
     1
102
RTVSPropertyOp13
 70
     1
102
RTVSPropertyOp14
 70
     1
102
RTVSPropertyOp15
 70
     1
102
RTVSPropertyOp16
 70
     1
102
RTVSPropertyOp17
 70
     1
102
RTVSPropertyOp18
 70
     1
102
RTVSPropertyOp19
 70
     1
102
RTVSPropertyOp20
 70
     1
102
RTVSPropertyOp21
 70
     1
102
RTVSPropertyOp22
 70
     1
102
RTVSPropertyOp23
 70
     1
102
RTVSPropertyOp24
 70
     1
102
RTVSPropertyOp25
 70
     1
102
RTVSPropertyOp26
 70
     1
102
RTVSPropertyOp27
 70
     1
102
RTVSPropertyOp28
 70
     1
102
RTVSPropertyOp29
 70
     1
102
RTVSPropertyOp30
 70
     1
102
RTVSPropertyOp31
 70
     1
102
RTVSPropertyOp32
 70
     1
102
RTVSPropertyOp33
 70
     1
102
RTVSPropertyOp34
 70
     1
102
RTVSPropertyOp35
 70
     1
102
RTVSPropertyOp36
 70
     1
102
RTVSPropertyOp37
 70
     1
102
RTVSPropertyOp38
 70
     1
102
RTVSPropertyOp39
 70
     1
102
RTVSPropertyOp40
 70
     1
102
RTVSPropertyOp41
 70
     1
102
RTVSPropertyOp42
 70
     1
102
RTVSPropertyOp43
 70
     1
102
RTVSPropertyOp44
 70
     1
102
RTVSPropertyOp45
 70
     1
102
RTVSPropertyOp46
 70
     1
102
RTVSPropertyOp47
 70
     1
102
RTVSPropertyOp48
 70
     1
102
RTVSPropertyOp49
 70
     1
102
RTVSPropertyOp50
 70
     1
102
RTVSPropertyOp51
 70
     0
102
RTVSPropertyOp52
 70
     0
102
RTVSPropertyOp53
 70
     1
102
RTVSPropertyOp54
 70
     1
102
RTVSPropertyOp55
 70
     1
102
RTVSPropertyOp56
 70
     1
102
RTVSPropertyOp57
 70
     1
102
RTVSPost2010Prop28
280
     0
102
RTVSPost2010PropOp28
 70
     1
102
RTVSPost2010Prop29
280
     1
102
RTVSPost2010PropOp29
 70
     1
102
RTVSPost2010Prop30
280
     1
102
RTVSPost2010PropOp30
 70
     1
102
RTVSPost2010Prop31
280
     0
102
RTVSPost2010PropOp31
 70
     1
102
RTVSPost2010Prop32
280
     0
102
RTVSPost2010PropOp32
 70
     1
102
RTVSPost2010Prop33
280
     0
102
RTVSPost2010PropOp33
 70
     1
102
RTVSPost2010Prop34
280
     0
102
RTVSPost2010PropOp34
 70
     1
102
RTVSPost2010Prop35
280
     0
102
RTVSPost2010PropOp35
 70
     1
102
RTVSPost2010Prop36
280
     0
102
RTVSPost2010PropOp36
 70
     1
102
RTVSPost2010Prop37
 90
       50
102
RTVSPost2010PropOp37
 70
     1
102
RTVSPost2010Prop38
140
0.0
102
RTVSPost2010PropOp38
 70
     1
102
RTVSPost2010Prop39
140
1.0
102
RTVSPost2010PropOp39
 70
     1
102
RTVSPost2010Prop40
 90
        0
102
RTVSPost2010PropOp40
 70
     1
102
RTVSPost2010Prop41ColorIndex
 90
       18
102
RTVSPost2010Prop41ColorRGB
 90
        0
102
RTVSPost2010PropOp41
 70
     1
102
RTVSPost2010Prop42
 90
       50
102
RTVSPost2010PropOp42
 70
     1
102
RTVSPost2010Prop43
 90
        3
102
RTVSPost2010PropOp43
 70
     1
102
RTVSPost2010Prop44ColorIndex
 90
        5
102
RTVSPost2010Prop44ColorRGB
 90
      255
102
RTVSPost2010PropOp44
 70
     1
102
RTVSPost2010Prop45
280
     0
102
RTVSPost2010PropOp45
 70
     1
102
RTVSPost2010Prop46
 90
       50
102
RTVSPost2010PropOp46
 70
     1
102
RTVSPost2010Prop47
 90
       50
102
RTVSPost2010PropOp47
 70
     1
102
RTVSPost2010Prop48
 90
       50
102
RTVSPost2010PropOp48
 70
     1
102
RTVSPost2010Prop49
280
     0
102
RTVSPost2010PropOp49
 70
     1
102
RTVSPost2010Prop50
 90
       50
102
RTVSPost2010PropOp50
 70
     1
102
RTVSPost2010Prop51ColorIndex
 90
      256
102
RTVSPost2010Prop51ColorRGB
 90
-16777216
102
RTVSPost2010PropOp51
 70
     0
102
RTVSPost2010Prop52
140
1.0
102
RTVSPost2010PropOp52
 70
     0
102
RTVSPost2010Prop53
 90
        2
102
RTVSPost2010PropOp53
 70
     1
102
RTVSPost2010Prop54
  1
strokes_ogs.tif
102
RTVSPost2010PropOp54
 70
     1
102
RTVSPost2010Prop55
280
     0
102
RTVSPost2010PropOp55
 70
     1
102
RTVSPost2010Prop56
140
1.0
102
RTVSPost2010PropOp56
 70
     1
102
RTVSPost2010Prop57
140
1.0
102
RTVSPost2010PropOp57
 70
     1
  0
XRECORD
  5
250
102
{ACAD_REACTORS
330
24F
102
}
330
24F
100
AcDbXrecord
280
     1
102
RTVSPropertyOp0
 70
     1
102
RTVSPropertyOp1
 70
     1
102
RTVSPropertyOp2
 70
     1
102
RTVSPropertyOp3
 70
     1
102
RTVSPropertyOp4
 70
     1
102
RTVSPropertyOp5
 70
     1
102
RTVSPropertyOp6
 70
     1
102
RTVSPropertyOp7
 70
     1
102
RTVSPropertyOp8
 70
     1
102
RTVSPropertyOp9
 70
     1
102
RTVSPropertyOp10
 70
     1
102
RTVSPropertyOp11
 70
     1
102
RTVSPropertyOp12
 70
     1
102
RTVSPropertyOp13
 70
     1
102
RTVSPropertyOp14
 70
     1
102
RTVSPropertyOp15
 70
     1
102
RTVSPropertyOp16
 70
     1
102
RTVSPropertyOp17
 70
     1
102
RTVSPropertyOp18
 70
     1
102
RTVSPropertyOp19
 70
     1
102
RTVSPropertyOp20
 70
     1
102
RTVSPropertyOp21
 70
     1
102
RTVSPropertyOp22
 70
     1
102
RTVSPropertyOp23
 70
     1
102
RTVSPropertyOp24
 70
     1
102
RTVSPropertyOp25
 70
     1
102
RTVSPropertyOp26
 70
     1
102
RTVSPropertyOp27
 70
     1
102
RTVSPropertyOp28
 70
     1
102
RTVSPropertyOp29
 70
     1
102
RTVSPropertyOp30
 70
     1
102
RTVSPropertyOp31
 70
     1
102
RTVSPropertyOp32
 70
     1
102
RTVSPropertyOp33
 70
     1
102
RTVSPropertyOp34
 70
     1
102
RTVSPropertyOp35
 70
     1
102
RTVSPropertyOp36
 70
     1
102
RTVSPropertyOp37
 70
     1
102
RTVSPropertyOp38
 70
     1
102
RTVSPropertyOp39
 70
     1
102
RTVSPropertyOp40
 70
     1
102
RTVSPropertyOp41
 70
     1
102
RTVSPropertyOp42
 70
     1
102
RTVSPropertyOp43
 70
     1
102
RTVSPropertyOp44
 70
     1
102
RTVSPropertyOp45
 70
     1
102
RTVSPropertyOp46
 70
     1
102
RTVSPropertyOp47
 70
     1
102
RTVSPropertyOp48
 70
     1
102
RTVSPropertyOp49
 70
     1
102
RTVSPropertyOp50
 70
     1
102
RTVSPropertyOp51
 70
     0
102
RTVSPropertyOp52
 70
     0
102
RTVSPropertyOp53
 70
     1
102
RTVSPropertyOp54
 70
     1
102
RTVSPropertyOp55
 70
     1
102
RTVSPropertyOp56
 70
     1
102
RTVSPropertyOp57
 70
     1
102
RTVSPost2010Prop28
280
     0
102
RTVSPost2010PropOp28
 70
     1
102
RTVSPost2010Prop29
280
     1
102
RTVSPost2010PropOp29
 70
     1
102
RTVSPost2010Prop30
280
     1
102
RTVSPost2010PropOp30
 70
     1
102
RTVSPost2010Prop31
280
     0
102
RTVSPost2010PropOp31
 70
     1
102
RTVSPost2010Prop32
280
     0
102
RTVSPost2010PropOp32
 70
     1
102
RTVSPost2010Prop33
280
     0
102
RTVSPost2010PropOp33
 70
     1
102
RTVSPost2010Prop34
280
     0
102
RTVSPost2010PropOp34
 70
     1
102
RTVSPost2010Prop35
280
     0
102
RTVSPost2010PropOp35
 70
     1
102
RTVSPost2010Prop36
280
     0
102
RTVSPost2010PropOp36
 70
     1
102
RTVSPost2010Prop37
 90
       50
102
RTVSPost2010PropOp37
 70
     1
102
RTVSPost2010Prop38
140
0.0
102
RTVSPost2010PropOp38
 70
     1
102
RTVSPost2010Prop39
140
1.0
102
RTVSPost2010PropOp39
 70
     1
102
RTVSPost2010Prop40
 90
        0
102
RTVSPost2010PropOp40
 70
     1
102
RTVSPost2010Prop41ColorIndex
 90
       18
102
RTVSPost2010Prop41ColorRGB
 90
        0
102
RTVSPost2010PropOp41
 70
     1
102
RTVSPost2010Prop42
 90
       50
102
RTVSPost2010PropOp42
 70
     1
102
RTVSPost2010Prop43
 90
        3
102
RTVSPost2010PropOp43
 70
     1
102
RTVSPost2010Prop44ColorIndex
 90
        5
102
RTVSPost2010Prop44ColorRGB
 90
      255
102
RTVSPost2010PropOp44
 70
     1
102
RTVSPost2010Prop45
280
     0
102
RTVSPost2010PropOp45
 70
     1
102
RTVSPost2010Prop46
 90
       50
102
RTVSPost2010PropOp46
 70
     1
102
RTVSPost2010Prop47
 90
       50
102
RTVSPost2010PropOp47
 70
     1
102
RTVSPost2010Prop48
 90
       50
102
RTVSPost2010PropOp48
 70
     1
102
RTVSPost2010Prop49
280
     0
102
RTVSPost2010PropOp49
 70
     1
102
RTVSPost2010Prop50
 90
       50
102
RTVSPost2010PropOp50
 70
     1
102
RTVSPost2010Prop51ColorIndex
 90
      256
102
RTVSPost2010Prop51ColorRGB
 90
-16777216
102
RTVSPost2010PropOp51
 70
     0
102
RTVSPost2010Prop52
140
1.0
102
RTVSPost2010PropOp52
 70
     0
102
RTVSPost2010Prop53
 90
        2
102
RTVSPost2010PropOp53
 70
     1
102
RTVSPost2010Prop54
  1
strokes_ogs.tif
102
RTVSPost2010PropOp54
 70
     1
102
RTVSPost2010Prop55
280
     0
102
RTVSPost2010PropOp55
 70
     1
102
RTVSPost2010Prop56
140
1.0
102
RTVSPost2010PropOp56
 70
     1
102
RTVSPost2010Prop57
140
1.0
102
RTVSPost2010PropOp57
 70
     1
  0
XRECORD
  5
252
102
{ACAD_REACTORS
330
251
102
}
330
251
100
AcDbXrecord
280
     1
102
RTVSPropertyOp0
 70
     1
102
RTVSPropertyOp1
 70
     1
102
RTVSPropertyOp2
 70
     1
102
RTVSPropertyOp3
 70
     1
102
RTVSPropertyOp4
 70
     1
102
RTVSPropertyOp5
 70
     1
102
RTVSPropertyOp6
 70
     1
102
RTVSPropertyOp7
 70
     1
102
RTVSPropertyOp8
 70
     1
102
RTVSPropertyOp9
 70
     1
102
RTVSPropertyOp10
 70
     1
102
RTVSPropertyOp11
 70
     1
102
RTVSPropertyOp12
 70
     1
102
RTVSPropertyOp13
 70
     1
102
RTVSPropertyOp14
 70
     1
102
RTVSPropertyOp15
 70
     1
102
RTVSPropertyOp16
 70
     1
102
RTVSPropertyOp17
 70
     1
102
RTVSPropertyOp18
 70
     1
102
RTVSPropertyOp19
 70
     1
102
RTVSPropertyOp20
 70
     1
102
RTVSPropertyOp21
 70
     1
102
RTVSPropertyOp22
 70
     1
102
RTVSPropertyOp23
 70
     1
102
RTVSPropertyOp24
 70
     1
102
RTVSPropertyOp25
 70
     1
102
RTVSPropertyOp26
 70
     1
102
RTVSPropertyOp27
 70
     1
102
RTVSPropertyOp28
 70
     1
102
RTVSPropertyOp29
 70
     1
102
RTVSPropertyOp30
 70
     1
102
RTVSPropertyOp31
 70
     1
102
RTVSPropertyOp32
 70
     1
102
RTVSPropertyOp33
 70
     1
102
RTVSPropertyOp34
 70
     1
102
RTVSPropertyOp35
 70
     1
102
RTVSPropertyOp36
 70
     1
102
RTVSPropertyOp37
 70
     1
102
RTVSPropertyOp38
 70
     1
102
RTVSPropertyOp39
 70
     1
102
RTVSPropertyOp40
 70
     1
102
RTVSPropertyOp41
 70
     1
102
RTVSPropertyOp42
 70
     1
102
RTVSPropertyOp43
 70
     1
102
RTVSPropertyOp44
 70
     1
102
RTVSPropertyOp45
 70
     1
102
RTVSPropertyOp46
 70
     1
102
RTVSPropertyOp47
 70
     1
102
RTVSPropertyOp48
 70
     1
102
RTVSPropertyOp49
 70
     1
102
RTVSPropertyOp50
 70
     1
102
RTVSPropertyOp51
 70
     0
102
RTVSPropertyOp52
 70
     0
102
RTVSPropertyOp53
 70
     1
102
RTVSPropertyOp54
 70
     1
102
RTVSPropertyOp55
 70
     1
102
RTVSPropertyOp56
 70
     1
102
RTVSPropertyOp57
 70
     1
102
RTVSPost2010Prop28
280
     0
102
RTVSPost2010PropOp28
 70
     1
102
RTVSPost2010Prop29
280
     1
102
RTVSPost2010PropOp29
 70
     1
102
RTVSPost2010Prop30
280
     1
102
RTVSPost2010PropOp30
 70
     1
102
RTVSPost2010Prop31
280
     0
102
RTVSPost2010PropOp31
 70
     1
102
RTVSPost2010Prop32
280
     0
102
RTVSPost2010PropOp32
 70
     1
102
RTVSPost2010Prop33
280
     0
102
RTVSPost2010PropOp33
 70
     1
102
RTVSPost2010Prop34
280
     0
102
RTVSPost2010PropOp34
 70
     1
102
RTVSPost2010Prop35
280
     0
102
RTVSPost2010PropOp35
 70
     1
102
RTVSPost2010Prop36
280
     0
102
RTVSPost2010PropOp36
 70
     1
102
RTVSPost2010Prop37
 90
       50
102
RTVSPost2010PropOp37
 70
     1
102
RTVSPost2010Prop38
140
0.0
102
RTVSPost2010PropOp38
 70
     1
102
RTVSPost2010Prop39
140
1.0
102
RTVSPost2010PropOp39
 70
     1
102
RTVSPost2010Prop40
 90
        0
102
RTVSPost2010PropOp40
 70
     1
102
RTVSPost2010Prop41ColorIndex
 90
       18
102
RTVSPost2010Prop41ColorRGB
 90
        0
102
RTVSPost2010PropOp41
 70
     1
102
RTVSPost2010Prop42
 90
       50
102
RTVSPost2010PropOp42
 70
     1
102
RTVSPost2010Prop43
 90
        3
102
RTVSPost2010PropOp43
 70
     1
102
RTVSPost2010Prop44ColorIndex
 90
        5
102
RTVSPost2010Prop44ColorRGB
 90
      255
102
RTVSPost2010PropOp44
 70
     1
102
RTVSPost2010Prop45
280
     0
102
RTVSPost2010PropOp45
 70
     1
102
RTVSPost2010Prop46
 90
       50
102
RTVSPost2010PropOp46
 70
     1
102
RTVSPost2010Prop47
 90
       50
102
RTVSPost2010PropOp47
 70
     1
102
RTVSPost2010Prop48
 90
       50
102
RTVSPost2010PropOp48
 70
     1
102
RTVSPost2010Prop49
280
     0
102
RTVSPost2010PropOp49
 70
     1
102
RTVSPost2010Prop50
 90
       50
102
RTVSPost2010PropOp50
 70
     1
102
RTVSPost2010Prop51ColorIndex
 90
      256
102
RTVSPost2010Prop51ColorRGB
 90
-16777216
102
RTVSPost2010PropOp51
 70
     0
102
RTVSPost2010Prop52
140
1.0
102
RTVSPost2010PropOp52
 70
     0
102
RTVSPost2010Prop53
 90
        2
102
RTVSPost2010PropOp53
 70
     1
102
RTVSPost2010Prop54
  1
strokes_ogs.tif
102
RTVSPost2010PropOp54
 70
     1
102
RTVSPost2010Prop55
280
     0
102
RTVSPost2010PropOp55
 70
     1
102
RTVSPost2010Prop56
140
1.0
102
RTVSPost2010PropOp56
 70
     1
102
RTVSPost2010Prop57
140
1.0
102
RTVSPost2010PropOp57
 70
     1
  0
XRECORD
  5
258
102
{ACAD_REACTORS
330
257
102
}
330
257
100
AcDbXrecord
280
     1
102
RTVSPropertyOp0
 70
     1
102
RTVSPropertyOp1
 70
     1
102
RTVSPropertyOp2
 70
     1
102
RTVSPropertyOp3
 70
     1
102
RTVSPropertyOp4
 70
     1
102
RTVSPropertyOp5
 70
     1
102
RTVSPropertyOp6
 70
     1
102
RTVSPropertyOp7
 70
     1
102
RTVSPropertyOp8
 70
     1
102
RTVSPropertyOp9
 70
     1
102
RTVSPropertyOp10
 70
     1
102
RTVSPropertyOp11
 70
     1
102
RTVSPropertyOp12
 70
     1
102
RTVSPropertyOp13
 70
     1
102
RTVSPropertyOp14
 70
     1
102
RTVSPropertyOp15
 70
     1
102
RTVSPropertyOp16
 70
     1
102
RTVSPropertyOp17
 70
     1
102
RTVSPropertyOp18
 70
     1
102
RTVSPropertyOp19
 70
     1
102
RTVSPropertyOp20
 70
     1
102
RTVSPropertyOp21
 70
     1
102
RTVSPropertyOp22
 70
     1
102
RTVSPropertyOp23
 70
     1
102
RTVSPropertyOp24
 70
     1
102
RTVSPropertyOp25
 70
     1
102
RTVSPropertyOp26
 70
     1
102
RTVSPropertyOp27
 70
     1
102
RTVSPropertyOp28
 70
     1
102
RTVSPropertyOp29
 70
     1
102
RTVSPropertyOp30
 70
     1
102
RTVSPropertyOp31
 70
     1
102
RTVSPropertyOp32
 70
     1
102
RTVSPropertyOp33
 70
     1
102
RTVSPropertyOp34
 70
     1
102
RTVSPropertyOp35
 70
     1
102
RTVSPropertyOp36
 70
     1
102
RTVSPropertyOp37
 70
     1
102
RTVSPropertyOp38
 70
     1
102
RTVSPropertyOp39
 70
     1
102
RTVSPropertyOp40
 70
     1
102
RTVSPropertyOp41
 70
     1
102
RTVSPropertyOp42
 70
     1
102
RTVSPropertyOp43
 70
     1
102
RTVSPropertyOp44
 70
     1
102
RTVSPropertyOp45
 70
     1
102
RTVSPropertyOp46
 70
     1
102
RTVSPropertyOp47
 70
     1
102
RTVSPropertyOp48
 70
     1
102
RTVSPropertyOp49
 70
     1
102
RTVSPropertyOp50
 70
     1
102
RTVSPropertyOp51
 70
     0
102
RTVSPropertyOp52
 70
     0
102
RTVSPropertyOp53
 70
     1
102
RTVSPropertyOp54
 70
     1
102
RTVSPropertyOp55
 70
     1
102
RTVSPropertyOp56
 70
     1
102
RTVSPropertyOp57
 70
     1
102
RTVSPost2010Prop28
280
     0
102
RTVSPost2010PropOp28
 70
     1
102
RTVSPost2010Prop29
280
     1
102
RTVSPost2010PropOp29
 70
     1
102
RTVSPost2010Prop30
280
     1
102
RTVSPost2010PropOp30
 70
     1
102
RTVSPost2010Prop31
280
     0
102
RTVSPost2010PropOp31
 70
     1
102
RTVSPost2010Prop32
280
     0
102
RTVSPost2010PropOp32
 70
     1
102
RTVSPost2010Prop33
280
     0
102
RTVSPost2010PropOp33
 70
     1
102
RTVSPost2010Prop34
280
     0
102
RTVSPost2010PropOp34
 70
     1
102
RTVSPost2010Prop35
280
     0
102
RTVSPost2010PropOp35
 70
     1
102
RTVSPost2010Prop36
280
     0
102
RTVSPost2010PropOp36
 70
     1
102
RTVSPost2010Prop37
 90
       50
102
RTVSPost2010PropOp37
 70
     1
102
RTVSPost2010Prop38
140
0.0
102
RTVSPost2010PropOp38
 70
     1
102
RTVSPost2010Prop39
140
1.0
102
RTVSPost2010PropOp39
 70
     1
102
RTVSPost2010Prop40
 90
        0
102
RTVSPost2010PropOp40
 70
     1
102
RTVSPost2010Prop41ColorIndex
 90
       18
102
RTVSPost2010Prop41ColorRGB
 90
        0
102
RTVSPost2010PropOp41
 70
     1
102
RTVSPost2010Prop42
 90
       50
102
RTVSPost2010PropOp42
 70
     1
102
RTVSPost2010Prop43
 90
        3
102
RTVSPost2010PropOp43
 70
     1
102
RTVSPost2010Prop44ColorIndex
 90
        5
102
RTVSPost2010Prop44ColorRGB
 90
      255
102
RTVSPost2010PropOp44
 70
     1
102
RTVSPost2010Prop45
280
     0
102
RTVSPost2010PropOp45
 70
     1
102
RTVSPost2010Prop46
 90
       50
102
RTVSPost2010PropOp46
 70
     1
102
RTVSPost2010Prop47
 90
       50
102
RTVSPost2010PropOp47
 70
     1
102
RTVSPost2010Prop48
 90
       50
102
RTVSPost2010PropOp48
 70
     1
102
RTVSPost2010Prop49
280
     0
102
RTVSPost2010PropOp49
 70
     1
102
RTVSPost2010Prop50
 90
       50
102
RTVSPost2010PropOp50
 70
     1
102
RTVSPost2010Prop51ColorIndex
 90
      256
102
RTVSPost2010Prop51ColorRGB
 90
-16777216
102
RTVSPost2010PropOp51
 70
     0
102
RTVSPost2010Prop52
140
1.0
102
RTVSPost2010PropOp52
 70
     0
102
RTVSPost2010Prop53
 90
        2
102
RTVSPost2010PropOp53
 70
     1
102
RTVSPost2010Prop54
  1
strokes_ogs.tif
102
RTVSPost2010PropOp54
 70
     1
102
RTVSPost2010Prop55
280
     0
102
RTVSPost2010PropOp55
 70
     1
102
RTVSPost2010Prop56
140
1.0
102
RTVSPost2010PropOp56
 70
     1
102
RTVSPost2010Prop57
140
1.0
102
RTVSPost2010PropOp57
 70
     1
  0
XRECORD
  5
26C
102
{ACAD_REACTORS
330
26B
102
}
330
26B
100
AcDbXrecord
280
     1
102
RTVSPropertyOp0
 70
     0
102
RTVSPropertyOp1
 70
     0
102
RTVSPropertyOp2
 70
     0
102
RTVSPropertyOp3
 70
     0
102
RTVSPropertyOp4
 70
     0
102
RTVSPropertyOp5
 70
     0
102
RTVSPropertyOp6
 70
     0
102
RTVSPropertyOp7
 70
     0
102
RTVSPropertyOp8
 70
     0
102
RTVSPropertyOp9
 70
     0
102
RTVSPropertyOp10
 70
     0
102
RTVSPropertyOp11
 70
     0
102
RTVSPropertyOp12
 70
     0
102
RTVSPropertyOp13
 70
     0
102
RTVSPropertyOp14
 70
     2
102
RTVSPropertyOp15
 70
     0
102
RTVSPropertyOp16
 70
     0
102
RTVSPropertyOp17
 70
     0
102
RTVSPropertyOp18
 70
     0
102
RTVSPropertyOp19
 70
     0
102
RTVSPropertyOp20
 70
     0
102
RTVSPropertyOp21
 70
     0
102
RTVSPropertyOp22
 70
     0
102
RTVSPropertyOp23
 70
     0
102
RTVSPropertyOp24
 70
     0
102
RTVSPropertyOp25
 70
     0
102
RTVSPropertyOp26
 70
     0
102
RTVSPropertyOp27
 70
     0
102
RTVSPropertyOp28
 70
     0
102
RTVSPropertyOp29
 70
     0
102
RTVSPropertyOp30
 70
     0
102
RTVSPropertyOp31
 70
     0
102
RTVSPropertyOp32
 70
     0
102
RTVSPropertyOp33
 70
     0
102
RTVSPropertyOp34
 70
     0
102
RTVSPropertyOp35
 70
     0
102
RTVSPropertyOp36
 70
     0
102
RTVSPropertyOp37
 70
     0
102
RTVSPropertyOp38
 70
     0
102
RTVSPropertyOp39
 70
     0
102
RTVSPropertyOp40
 70
     0
102
RTVSPropertyOp41
 70
     0
102
RTVSPropertyOp42
 70
     0
102
RTVSPropertyOp43
 70
     0
102
RTVSPropertyOp44
 70
     0
102
RTVSPropertyOp45
 70
     0
102
RTVSPropertyOp46
 70
     0
102
RTVSPropertyOp47
 70
     0
102
RTVSPropertyOp48
 70
     0
102
RTVSPropertyOp49
 70
     0
102
RTVSPropertyOp50
 70
     0
102
RTVSPropertyOp51
 70
     0
102
RTVSPropertyOp52
 70
     0
102
RTVSPropertyOp53
 70
     0
102
RTVSPropertyOp54
 70
     0
102
RTVSPropertyOp55
 70
     0
102
RTVSPropertyOp56
 70
     0
102
RTVSPropertyOp57
 70
     0
102
RTVSPost2010Prop28
280
     0
102
RTVSPost2010PropOp28
 70
     0
102
RTVSPost2010Prop29
280
     1
102
RTVSPost2010PropOp29
 70
     0
102
RTVSPost2010Prop30
280
     1
102
RTVSPost2010PropOp30
 70
     0
102
RTVSPost2010Prop31
280
     0
102
RTVSPost2010PropOp31
 70
     0
102
RTVSPost2010Prop32
280
     0
102
RTVSPost2010PropOp32
 70
     0
102
RTVSPost2010Prop33
280
     0
102
RTVSPost2010PropOp33
 70
     0
102
RTVSPost2010Prop34
280
     0
102
RTVSPost2010PropOp34
 70
     0
102
RTVSPost2010Prop35
280
     0
102
RTVSPost2010PropOp35
 70
     0
102
RTVSPost2010Prop36
280
     0
102
RTVSPost2010PropOp36
 70
     0
102
RTVSPost2010Prop37
 90
       50
102
RTVSPost2010PropOp37
 70
     0
102
RTVSPost2010Prop38
140
0.0
102
RTVSPost2010PropOp38
 70
     0
102
RTVSPost2010Prop39
140
1.0
102
RTVSPost2010PropOp39
 70
     0
102
RTVSPost2010Prop40
 90
        0
102
RTVSPost2010PropOp40
 70
     0
102
RTVSPost2010Prop41ColorIndex
 90
       18
102
RTVSPost2010Prop41ColorRGB
 90
        0
102
RTVSPost2010PropOp41
 70
     0
102
RTVSPost2010Prop42
 90
       50
102
RTVSPost2010PropOp42
 70
     0
102
RTVSPost2010Prop43
 90
        3
102
RTVSPost2010PropOp43
 70
     0
102
RTVSPost2010Prop44ColorIndex
 90
        5
102
RTVSPost2010Prop44ColorRGB
 90
      255
102
RTVSPost2010PropOp44
 70
     0
102
RTVSPost2010Prop45
280
     0
102
RTVSPost2010PropOp45
 70
     0
102
RTVSPost2010Prop46
 90
       50
102
RTVSPost2010PropOp46
 70
     0
102
RTVSPost2010Prop47
 90
       50
102
RTVSPost2010PropOp47
 70
     0
102
RTVSPost2010Prop48
 90
       50
102
RTVSPost2010PropOp48
 70
     0
102
RTVSPost2010Prop49
280
     0
102
RTVSPost2010PropOp49
 70
     0
102
RTVSPost2010Prop50
 90
       50
102
RTVSPost2010PropOp50
 70
     0
102
RTVSPost2010Prop51ColorIndex
 90
      256
102
RTVSPost2010Prop51ColorRGB
 90
-16777216
102
RTVSPost2010PropOp51
 70
     0
102
RTVSPost2010Prop52
140
1.0
102
RTVSPost2010PropOp52
 70
     0
102
RTVSPost2010Prop53
 90
        2
102
RTVSPost2010PropOp53
 70
     0
102
RTVSPost2010Prop54
  1
strokes_ogs.tif
102
RTVSPost2010PropOp54
 70
     0
102
RTVSPost2010Prop55
280
     0
102
RTVSPost2010PropOp55
 70
     0
102
RTVSPost2010Prop56
140
1.0
102
RTVSPost2010PropOp56
 70
     0
102
RTVSPost2010Prop57
140
1.0
102
RTVSPost2010PropOp57
 70
     0
  0
XRECORD
  5
266
102
{ACAD_REACTORS
330
265
102
}
330
265
100
AcDbXrecord
280
     1
102
RTVSPropertyOp0
 70
     1
102
RTVSPropertyOp1
 70
     1
102
RTVSPropertyOp2
 70
     1
102
RTVSPropertyOp3
 70
     1
102
RTVSPropertyOp4
 70
     1
102
RTVSPropertyOp5
 70
     1
102
RTVSPropertyOp6
 70
     1
102
RTVSPropertyOp7
 70
     1
102
RTVSPropertyOp8
 70
     1
102
RTVSPropertyOp9
 70
     1
102
RTVSPropertyOp10
 70
     1
102
RTVSPropertyOp11
 70
     1
102
RTVSPropertyOp12
 70
     1
102
RTVSPropertyOp13
 70
     1
102
RTVSPropertyOp14
 70
     1
102
RTVSPropertyOp15
 70
     1
102
RTVSPropertyOp16
 70
     1
102
RTVSPropertyOp17
 70
     1
102
RTVSPropertyOp18
 70
     1
102
RTVSPropertyOp19
 70
     1
102
RTVSPropertyOp20
 70
     1
102
RTVSPropertyOp21
 70
     1
102
RTVSPropertyOp22
 70
     1
102
RTVSPropertyOp23
 70
     1
102
RTVSPropertyOp24
 70
     1
102
RTVSPropertyOp25
 70
     1
102
RTVSPropertyOp26
 70
     1
102
RTVSPropertyOp27
 70
     1
102
RTVSPropertyOp28
 70
     1
102
RTVSPropertyOp29
 70
     1
102
RTVSPropertyOp30
 70
     1
102
RTVSPropertyOp31
 70
     1
102
RTVSPropertyOp32
 70
     1
102
RTVSPropertyOp33
 70
     1
102
RTVSPropertyOp34
 70
     1
102
RTVSPropertyOp35
 70
     1
102
RTVSPropertyOp36
 70
     1
102
RTVSPropertyOp37
 70
     1
102
RTVSPropertyOp38
 70
     1
102
RTVSPropertyOp39
 70
     1
102
RTVSPropertyOp40
 70
     1
102
RTVSPropertyOp41
 70
     1
102
RTVSPropertyOp42
 70
     1
102
RTVSPropertyOp43
 70
     1
102
RTVSPropertyOp44
 70
     1
102
RTVSPropertyOp45
 70
     1
102
RTVSPropertyOp46
 70
     1
102
RTVSPropertyOp47
 70
     1
102
RTVSPropertyOp48
 70
     1
102
RTVSPropertyOp49
 70
     1
102
RTVSPropertyOp50
 70
     1
102
RTVSPropertyOp51
 70
     0
102
RTVSPropertyOp52
 70
     0
102
RTVSPropertyOp53
 70
     1
102
RTVSPropertyOp54
 70
     1
102
RTVSPropertyOp55
 70
     1
102
RTVSPropertyOp56
 70
     1
102
RTVSPropertyOp57
 70
     1
102
RTVSPost2010Prop28
280
     0
102
RTVSPost2010PropOp28
 70
     1
102
RTVSPost2010Prop29
280
     1
102
RTVSPost2010PropOp29
 70
     1
102
RTVSPost2010Prop30
280
     1
102
RTVSPost2010PropOp30
 70
     1
102
RTVSPost2010Prop31
280
     0
102
RTVSPost2010PropOp31
 70
     1
102
RTVSPost2010Prop32
280
     0
102
RTVSPost2010PropOp32
 70
     1
102
RTVSPost2010Prop33
280
     0
102
RTVSPost2010PropOp33
 70
     1
102
RTVSPost2010Prop34
280
     0
102
RTVSPost2010PropOp34
 70
     1
102
RTVSPost2010Prop35
280
     0
102
RTVSPost2010PropOp35
 70
     1
102
RTVSPost2010Prop36
280
     0
102
RTVSPost2010PropOp36
 70
     1
102
RTVSPost2010Prop37
 90
       50
102
RTVSPost2010PropOp37
 70
     1
102
RTVSPost2010Prop38
140
0.0
102
RTVSPost2010PropOp38
 70
     1
102
RTVSPost2010Prop39
140
1.0
102
RTVSPost2010PropOp39
 70
     1
102
RTVSPost2010Prop40
 90
        0
102
RTVSPost2010PropOp40
 70
     1
102
RTVSPost2010Prop41ColorIndex
 90
       18
102
RTVSPost2010Prop41ColorRGB
 90
        0
102
RTVSPost2010PropOp41
 70
     1
102
RTVSPost2010Prop42
 90
       50
102
RTVSPost2010PropOp42
 70
     1
102
RTVSPost2010Prop43
 90
        3
102
RTVSPost2010PropOp43
 70
     1
102
RTVSPost2010Prop44ColorIndex
 90
        5
102
RTVSPost2010Prop44ColorRGB
 90
      255
102
RTVSPost2010PropOp44
 70
     1
102
RTVSPost2010Prop45
280
     0
102
RTVSPost2010PropOp45
 70
     1
102
RTVSPost2010Prop46
 90
       50
102
RTVSPost2010PropOp46
 70
     1
102
RTVSPost2010Prop47
 90
       50
102
RTVSPost2010PropOp47
 70
     1
102
RTVSPost2010Prop48
 90
       50
102
RTVSPost2010PropOp48
 70
     1
102
RTVSPost2010Prop49
280
     0
102
RTVSPost2010PropOp49
 70
     1
102
RTVSPost2010Prop50
 90
       50
102
RTVSPost2010PropOp50
 70
     1
102
RTVSPost2010Prop51ColorIndex
 90
      256
102
RTVSPost2010Prop51ColorRGB
 90
-16777216
102
RTVSPost2010PropOp51
 70
     0
102
RTVSPost2010Prop52
140
1.0
102
RTVSPost2010PropOp52
 70
     0
102
RTVSPost2010Prop53
 90
        2
102
RTVSPost2010PropOp53
 70
     1
102
RTVSPost2010Prop54
  1
strokes_ogs.tif
102
RTVSPost2010PropOp54
 70
     1
102
RTVSPost2010Prop55
280
     0
102
RTVSPost2010PropOp55
 70
     1
102
RTVSPost2010Prop56
140
1.0
102
RTVSPost2010PropOp56
 70
     1
102
RTVSPost2010Prop57
140
1.0
102
RTVSPost2010PropOp57
 70
     1
  0
XRECORD
  5
26E
102
{ACAD_REACTORS
330
26D
102
}
330
26D
100
AcDbXrecord
280
     1
102
RTVSPropertyOp0
 70
     0
102
RTVSPropertyOp1
 70
     0
102
RTVSPropertyOp2
 70
     0
102
RTVSPropertyOp3
 70
     0
102
RTVSPropertyOp4
 70
     0
102
RTVSPropertyOp5
 70
     0
102
RTVSPropertyOp6
 70
     0
102
RTVSPropertyOp7
 70
     0
102
RTVSPropertyOp8
 70
     0
102
RTVSPropertyOp9
 70
     0
102
RTVSPropertyOp10
 70
     0
102
RTVSPropertyOp11
 70
     0
102
RTVSPropertyOp12
 70
     0
102
RTVSPropertyOp13
 70
     0
102
RTVSPropertyOp14
 70
     2
102
RTVSPropertyOp15
 70
     0
102
RTVSPropertyOp16
 70
     0
102
RTVSPropertyOp17
 70
     0
102
RTVSPropertyOp18
 70
     0
102
RTVSPropertyOp19
 70
     0
102
RTVSPropertyOp20
 70
     0
102
RTVSPropertyOp21
 70
     0
102
RTVSPropertyOp22
 70
     0
102
RTVSPropertyOp23
 70
     0
102
RTVSPropertyOp24
 70
     0
102
RTVSPropertyOp25
 70
     0
102
RTVSPropertyOp26
 70
     0
102
RTVSPropertyOp27
 70
     0
102
RTVSPropertyOp28
 70
     0
102
RTVSPropertyOp29
 70
     0
102
RTVSPropertyOp30
 70
     0
102
RTVSPropertyOp31
 70
     0
102
RTVSPropertyOp32
 70
     0
102
RTVSPropertyOp33
 70
     0
102
RTVSPropertyOp34
 70
     0
102
RTVSPropertyOp35
 70
     0
102
RTVSPropertyOp36
 70
     0
102
RTVSPropertyOp37
 70
     0
102
RTVSPropertyOp38
 70
     0
102
RTVSPropertyOp39
 70
     0
102
RTVSPropertyOp40
 70
     0
102
RTVSPropertyOp41
 70
     0
102
RTVSPropertyOp42
 70
     0
102
RTVSPropertyOp43
 70
     0
102
RTVSPropertyOp44
 70
     0
102
RTVSPropertyOp45
 70
     0
102
RTVSPropertyOp46
 70
     0
102
RTVSPropertyOp47
 70
     0
102
RTVSPropertyOp48
 70
     0
102
RTVSPropertyOp49
 70
     0
102
RTVSPropertyOp50
 70
     0
102
RTVSPropertyOp51
 70
     0
102
RTVSPropertyOp52
 70
     0
102
RTVSPropertyOp53
 70
     0
102
RTVSPropertyOp54
 70
     0
102
RTVSPropertyOp55
 70
     0
102
RTVSPropertyOp56
 70
     0
102
RTVSPropertyOp57
 70
     0
102
RTVSPost2010Prop28
280
     0
102
RTVSPost2010PropOp28
 70
     0
102
RTVSPost2010Prop29
280
     1
102
RTVSPost2010PropOp29
 70
     0
102
RTVSPost2010Prop30
280
     1
102
RTVSPost2010PropOp30
 70
     0
102
RTVSPost2010Prop31
280
     0
102
RTVSPost2010PropOp31
 70
     0
102
RTVSPost2010Prop32
280
     0
102
RTVSPost2010PropOp32
 70
     0
102
RTVSPost2010Prop33
280
     0
102
RTVSPost2010PropOp33
 70
     0
102
RTVSPost2010Prop34
280
     0
102
RTVSPost2010PropOp34
 70
     0
102
RTVSPost2010Prop35
280
     0
102
RTVSPost2010PropOp35
 70
     0
102
RTVSPost2010Prop36
280
     0
102
RTVSPost2010PropOp36
 70
     0
102
RTVSPost2010Prop37
 90
       50
102
RTVSPost2010PropOp37
 70
     0
102
RTVSPost2010Prop38
140
0.0
102
RTVSPost2010PropOp38
 70
     0
102
RTVSPost2010Prop39
140
1.0
102
RTVSPost2010PropOp39
 70
     0
102
RTVSPost2010Prop40
 90
        0
102
RTVSPost2010PropOp40
 70
     0
102
RTVSPost2010Prop41ColorIndex
 90
       18
102
RTVSPost2010Prop41ColorRGB
 90
        0
102
RTVSPost2010PropOp41
 70
     0
102
RTVSPost2010Prop42
 90
       50
102
RTVSPost2010PropOp42
 70
     0
102
RTVSPost2010Prop43
 90
        3
102
RTVSPost2010PropOp43
 70
     0
102
RTVSPost2010Prop44ColorIndex
 90
        5
102
RTVSPost2010Prop44ColorRGB
 90
      255
102
RTVSPost2010PropOp44
 70
     0
102
RTVSPost2010Prop45
280
     0
102
RTVSPost2010PropOp45
 70
     0
102
RTVSPost2010Prop46
 90
       50
102
RTVSPost2010PropOp46
 70
     0
102
RTVSPost2010Prop47
 90
       50
102
RTVSPost2010PropOp47
 70
     0
102
RTVSPost2010Prop48
 90
       50
102
RTVSPost2010PropOp48
 70
     0
102
RTVSPost2010Prop49
280
     0
102
RTVSPost2010PropOp49
 70
     0
102
RTVSPost2010Prop50
 90
       50
102
RTVSPost2010PropOp50
 70
     0
102
RTVSPost2010Prop51ColorIndex
 90
      256
102
RTVSPost2010Prop51ColorRGB
 90
-16777216
102
RTVSPost2010PropOp51
 70
     0
102
RTVSPost2010Prop52
140
1.0
102
RTVSPost2010PropOp52
 70
     0
102
RTVSPost2010Prop53
 90
        2
102
RTVSPost2010PropOp53
 70
     0
102
RTVSPost2010Prop54
  1
strokes_ogs.tif
102
RTVSPost2010PropOp54
 70
     0
102
RTVSPost2010Prop55
280
     0
102
RTVSPost2010PropOp55
 70
     0
102
RTVSPost2010Prop56
140
1.0
102
RTVSPost2010PropOp56
 70
     0
102
RTVSPost2010Prop57
140
1.0
102
RTVSPost2010PropOp57
 70
     0
  0
XRECORD
  5
25C
102
{ACAD_REACTORS
330
25B
102
}
330
25B
100
AcDbXrecord
280
     1
102
RTVSPropertyOp0
 70
     1
102
RTVSPropertyOp1
 70
     1
102
RTVSPropertyOp2
 70
     1
102
RTVSPropertyOp3
 70
     1
102
RTVSPropertyOp4
 70
     1
102
RTVSPropertyOp5
 70
     1
102
RTVSPropertyOp6
 70
     1
102
RTVSPropertyOp7
 70
     1
102
RTVSPropertyOp8
 70
     1
102
RTVSPropertyOp9
 70
     1
102
RTVSPropertyOp10
 70
     1
102
RTVSPropertyOp11
 70
     1
102
RTVSPropertyOp12
 70
     1
102
RTVSPropertyOp13
 70
     1
102
RTVSPropertyOp14
 70
     1
102
RTVSPropertyOp15
 70
     1
102
RTVSPropertyOp16
 70
     1
102
RTVSPropertyOp17
 70
     1
102
RTVSPropertyOp18
 70
     1
102
RTVSPropertyOp19
 70
     1
102
RTVSPropertyOp20
 70
     1
102
RTVSPropertyOp21
 70
     1
102
RTVSPropertyOp22
 70
     1
102
RTVSPropertyOp23
 70
     1
102
RTVSPropertyOp24
 70
     1
102
RTVSPropertyOp25
 70
     1
102
RTVSPropertyOp26
 70
     1
102
RTVSPropertyOp27
 70
     1
102
RTVSPropertyOp28
 70
     1
102
RTVSPropertyOp29
 70
     1
102
RTVSPropertyOp30
 70
     1
102
RTVSPropertyOp31
 70
     1
102
RTVSPropertyOp32
 70
     1
102
RTVSPropertyOp33
 70
     1
102
RTVSPropertyOp34
 70
     1
102
RTVSPropertyOp35
 70
     1
102
RTVSPropertyOp36
 70
     1
102
RTVSPropertyOp37
 70
     1
102
RTVSPropertyOp38
 70
     1
102
RTVSPropertyOp39
 70
     1
102
RTVSPropertyOp40
 70
     1
102
RTVSPropertyOp41
 70
     1
102
RTVSPropertyOp42
 70
     1
102
RTVSPropertyOp43
 70
     1
102
RTVSPropertyOp44
 70
     1
102
RTVSPropertyOp45
 70
     1
102
RTVSPropertyOp46
 70
     1
102
RTVSPropertyOp47
 70
     1
102
RTVSPropertyOp48
 70
     1
102
RTVSPropertyOp49
 70
     1
102
RTVSPropertyOp50
 70
     1
102
RTVSPropertyOp51
 70
     0
102
RTVSPropertyOp52
 70
     0
102
RTVSPropertyOp53
 70
     1
102
RTVSPropertyOp54
 70
     1
102
RTVSPropertyOp55
 70
     1
102
RTVSPropertyOp56
 70
     1
102
RTVSPropertyOp57
 70
     1
102
RTVSPost2010Prop28
280
     0
102
RTVSPost2010PropOp28
 70
     1
102
RTVSPost2010Prop29
280
     1
102
RTVSPost2010PropOp29
 70
     1
102
RTVSPost2010Prop30
280
     1
102
RTVSPost2010PropOp30
 70
     1
102
RTVSPost2010Prop31
280
     0
102
RTVSPost2010PropOp31
 70
     1
102
RTVSPost2010Prop32
280
     0
102
RTVSPost2010PropOp32
 70
     1
102
RTVSPost2010Prop33
280
     0
102
RTVSPost2010PropOp33
 70
     1
102
RTVSPost2010Prop34
280
     0
102
RTVSPost2010PropOp34
 70
     1
102
RTVSPost2010Prop35
280
     0
102
RTVSPost2010PropOp35
 70
     1
102
RTVSPost2010Prop36
280
     0
102
RTVSPost2010PropOp36
 70
     1
102
RTVSPost2010Prop37
 90
       50
102
RTVSPost2010PropOp37
 70
     1
102
RTVSPost2010Prop38
140
0.0
102
RTVSPost2010PropOp38
 70
     1
102
RTVSPost2010Prop39
140
1.0
102
RTVSPost2010PropOp39
 70
     1
102
RTVSPost2010Prop40
 90
        0
102
RTVSPost2010PropOp40
 70
     1
102
RTVSPost2010Prop41ColorIndex
 90
       18
102
RTVSPost2010Prop41ColorRGB
 90
        0
102
RTVSPost2010PropOp41
 70
     1
102
RTVSPost2010Prop42
 90
       50
102
RTVSPost2010PropOp42
 70
     1
102
RTVSPost2010Prop43
 90
        3
102
RTVSPost2010PropOp43
 70
     1
102
RTVSPost2010Prop44ColorIndex
 90
        5
102
RTVSPost2010Prop44ColorRGB
 90
      255
102
RTVSPost2010PropOp44
 70
     1
102
RTVSPost2010Prop45
280
     0
102
RTVSPost2010PropOp45
 70
     1
102
RTVSPost2010Prop46
 90
       50
102
RTVSPost2010PropOp46
 70
     1
102
RTVSPost2010Prop47
 90
       50
102
RTVSPost2010PropOp47
 70
     1
102
RTVSPost2010Prop48
 90
       50
102
RTVSPost2010PropOp48
 70
     1
102
RTVSPost2010Prop49
280
     0
102
RTVSPost2010PropOp49
 70
     1
102
RTVSPost2010Prop50
 90
       50
102
RTVSPost2010PropOp50
 70
     1
102
RTVSPost2010Prop51ColorIndex
 90
      256
102
RTVSPost2010Prop51ColorRGB
 90
-16777216
102
RTVSPost2010PropOp51
 70
     0
102
RTVSPost2010Prop52
140
1.0
102
RTVSPost2010PropOp52
 70
     0
102
RTVSPost2010Prop53
 90
        2
102
RTVSPost2010PropOp53
 70
     1
102
RTVSPost2010Prop54
  1
strokes_ogs.tif
102
RTVSPost2010PropOp54
 70
     1
102
RTVSPost2010Prop55
280
     0
102
RTVSPost2010PropOp55
 70
     1
102
RTVSPost2010Prop56
140
1.0
102
RTVSPost2010PropOp56
 70
     1
102
RTVSPost2010Prop57
140
1.0
102
RTVSPost2010PropOp57
 70
     1
  0
XRECORD
  5
27A
102
{ACAD_REACTORS
330
279
102
}
330
279
100
AcDbXrecord
280
     1
102
RTVSPropertyOp0
 70
     1
102
RTVSPropertyOp1
 70
     1
102
RTVSPropertyOp2
 70
     1
102
RTVSPropertyOp3
 70
     1
102
RTVSPropertyOp4
 70
     1
102
RTVSPropertyOp5
 70
     1
102
RTVSPropertyOp6
 70
     1
102
RTVSPropertyOp7
 70
     1
102
RTVSPropertyOp8
 70
     1
102
RTVSPropertyOp9
 70
     1
102
RTVSPropertyOp10
 70
     1
102
RTVSPropertyOp11
 70
     1
102
RTVSPropertyOp12
 70
     1
102
RTVSPropertyOp13
 70
     1
102
RTVSPropertyOp14
 70
     1
102
RTVSPropertyOp15
 70
     1
102
RTVSPropertyOp16
 70
     1
102
RTVSPropertyOp17
 70
     1
102
RTVSPropertyOp18
 70
     1
102
RTVSPropertyOp19
 70
     1
102
RTVSPropertyOp20
 70
     1
102
RTVSPropertyOp21
 70
     1
102
RTVSPropertyOp22
 70
     1
102
RTVSPropertyOp23
 70
     1
102
RTVSPropertyOp24
 70
     1
102
RTVSPropertyOp25
 70
     1
102
RTVSPropertyOp26
 70
     1
102
RTVSPropertyOp27
 70
     1
102
RTVSPropertyOp28
 70
     1
102
RTVSPropertyOp29
 70
     1
102
RTVSPropertyOp30
 70
     1
102
RTVSPropertyOp31
 70
     1
102
RTVSPropertyOp32
 70
     1
102
RTVSPropertyOp33
 70
     1
102
RTVSPropertyOp34
 70
     1
102
RTVSPropertyOp35
 70
     1
102
RTVSPropertyOp36
 70
     1
102
RTVSPropertyOp37
 70
     1
102
RTVSPropertyOp38
 70
     1
102
RTVSPropertyOp39
 70
     1
102
RTVSPropertyOp40
 70
     1
102
RTVSPropertyOp41
 70
     1
102
RTVSPropertyOp42
 70
     1
102
RTVSPropertyOp43
 70
     1
102
RTVSPropertyOp44
 70
     1
102
RTVSPropertyOp45
 70
     1
102
RTVSPropertyOp46
 70
     1
102
RTVSPropertyOp47
 70
     1
102
RTVSPropertyOp48
 70
     1
102
RTVSPropertyOp49
 70
     1
102
RTVSPropertyOp50
 70
     1
102
RTVSPropertyOp51
 70
     0
102
RTVSPropertyOp52
 70
     0
102
RTVSPropertyOp53
 70
     1
102
RTVSPropertyOp54
 70
     1
102
RTVSPropertyOp55
 70
     1
102
RTVSPropertyOp56
 70
     1
102
RTVSPropertyOp57
 70
     1
102
RTVSPost2010Prop28
280
     0
102
RTVSPost2010PropOp28
 70
     1
102
RTVSPost2010Prop29
280
     1
102
RTVSPost2010PropOp29
 70
     1
102
RTVSPost2010Prop30
280
     1
102
RTVSPost2010PropOp30
 70
     1
102
RTVSPost2010Prop31
280
     0
102
RTVSPost2010PropOp31
 70
     1
102
RTVSPost2010Prop32
280
     0
102
RTVSPost2010PropOp32
 70
     1
102
RTVSPost2010Prop33
280
     0
102
RTVSPost2010PropOp33
 70
     1
102
RTVSPost2010Prop34
280
     0
102
RTVSPost2010PropOp34
 70
     1
102
RTVSPost2010Prop35
280
     0
102
RTVSPost2010PropOp35
 70
     1
102
RTVSPost2010Prop36
280
     0
102
RTVSPost2010PropOp36
 70
     1
102
RTVSPost2010Prop37
 90
       50
102
RTVSPost2010PropOp37
 70
     1
102
RTVSPost2010Prop38
140
0.0
102
RTVSPost2010PropOp38
 70
     1
102
RTVSPost2010Prop39
140
1.0
102
RTVSPost2010PropOp39
 70
     1
102
RTVSPost2010Prop40
 90
        0
102
RTVSPost2010PropOp40
 70
     1
102
RTVSPost2010Prop41ColorIndex
 90
       18
102
RTVSPost2010Prop41ColorRGB
 90
        0
102
RTVSPost2010PropOp41
 70
     1
102
RTVSPost2010Prop42
 90
       50
102
RTVSPost2010PropOp42
 70
     1
102
RTVSPost2010Prop43
 90
        3
102
RTVSPost2010PropOp43
 70
     1
102
RTVSPost2010Prop44ColorIndex
 90
        5
102
RTVSPost2010Prop44ColorRGB
 90
      255
102
RTVSPost2010PropOp44
 70
     1
102
RTVSPost2010Prop45
280
     0
102
RTVSPost2010PropOp45
 70
     1
102
RTVSPost2010Prop46
 90
       50
102
RTVSPost2010PropOp46
 70
     1
102
RTVSPost2010Prop47
 90
       50
102
RTVSPost2010PropOp47
 70
     1
102
RTVSPost2010Prop48
 90
       50
102
RTVSPost2010PropOp48
 70
     1
102
RTVSPost2010Prop49
280
     0
102
RTVSPost2010PropOp49
 70
     1
102
RTVSPost2010Prop50
 90
       50
102
RTVSPost2010PropOp50
 70
     1
102
RTVSPost2010Prop51ColorIndex
 90
      256
102
RTVSPost2010Prop51ColorRGB
 90
-16777216
102
RTVSPost2010PropOp51
 70
     0
102
RTVSPost2010Prop52
140
1.0
102
RTVSPost2010PropOp52
 70
     0
102
RTVSPost2010Prop53
 90
        2
102
RTVSPost2010PropOp53
 70
     1
102
RTVSPost2010Prop54
  1
strokes_ogs.tif
102
RTVSPost2010PropOp54
 70
     1
102
RTVSPost2010Prop55
280
     0
102
RTVSPost2010PropOp55
 70
     1
102
RTVSPost2010Prop56
140
1.0
102
RTVSPost2010PropOp56
 70
     1
102
RTVSPost2010Prop57
140
1.0
102
RTVSPost2010PropOp57
 70
     1
  0
XRECORD
  5
278
102
{ACAD_REACTORS
330
277
102
}
330
277
100
AcDbXrecord
280
     1
102
RTVSPropertyOp0
 70
     1
102
RTVSPropertyOp1
 70
     1
102
RTVSPropertyOp2
 70
     1
102
RTVSPropertyOp3
 70
     1
102
RTVSPropertyOp4
 70
     1
102
RTVSPropertyOp5
 70
     1
102
RTVSPropertyOp6
 70
     1
102
RTVSPropertyOp7
 70
     1
102
RTVSPropertyOp8
 70
     1
102
RTVSPropertyOp9
 70
     1
102
RTVSPropertyOp10
 70
     1
102
RTVSPropertyOp11
 70
     1
102
RTVSPropertyOp12
 70
     1
102
RTVSPropertyOp13
 70
     1
102
RTVSPropertyOp14
 70
     1
102
RTVSPropertyOp15
 70
     1
102
RTVSPropertyOp16
 70
     1
102
RTVSPropertyOp17
 70
     1
102
RTVSPropertyOp18
 70
     1
102
RTVSPropertyOp19
 70
     1
102
RTVSPropertyOp20
 70
     1
102
RTVSPropertyOp21
 70
     1
102
RTVSPropertyOp22
 70
     1
102
RTVSPropertyOp23
 70
     1
102
RTVSPropertyOp24
 70
     1
102
RTVSPropertyOp25
 70
     1
102
RTVSPropertyOp26
 70
     1
102
RTVSPropertyOp27
 70
     1
102
RTVSPropertyOp28
 70
     1
102
RTVSPropertyOp29
 70
     1
102
RTVSPropertyOp30
 70
     1
102
RTVSPropertyOp31
 70
     1
102
RTVSPropertyOp32
 70
     1
102
RTVSPropertyOp33
 70
     1
102
RTVSPropertyOp34
 70
     1
102
RTVSPropertyOp35
 70
     1
102
RTVSPropertyOp36
 70
     1
102
RTVSPropertyOp37
 70
     1
102
RTVSPropertyOp38
 70
     1
102
RTVSPropertyOp39
 70
     1
102
RTVSPropertyOp40
 70
     1
102
RTVSPropertyOp41
 70
     1
102
RTVSPropertyOp42
 70
     1
102
RTVSPropertyOp43
 70
     1
102
RTVSPropertyOp44
 70
     1
102
RTVSPropertyOp45
 70
     1
102
RTVSPropertyOp46
 70
     1
102
RTVSPropertyOp47
 70
     1
102
RTVSPropertyOp48
 70
     1
102
RTVSPropertyOp49
 70
     1
102
RTVSPropertyOp50
 70
     1
102
RTVSPropertyOp51
 70
     0
102
RTVSPropertyOp52
 70
     0
102
RTVSPropertyOp53
 70
     1
102
RTVSPropertyOp54
 70
     1
102
RTVSPropertyOp55
 70
     1
102
RTVSPropertyOp56
 70
     1
102
RTVSPropertyOp57
 70
     1
102
RTVSPost2010Prop28
280
     0
102
RTVSPost2010PropOp28
 70
     1
102
RTVSPost2010Prop29
280
     1
102
RTVSPost2010PropOp29
 70
     1
102
RTVSPost2010Prop30
280
     1
102
RTVSPost2010PropOp30
 70
     1
102
RTVSPost2010Prop31
280
     0
102
RTVSPost2010PropOp31
 70
     1
102
RTVSPost2010Prop32
280
     0
102
RTVSPost2010PropOp32
 70
     1
102
RTVSPost2010Prop33
280
     0
102
RTVSPost2010PropOp33
 70
     1
102
RTVSPost2010Prop34
280
     0
102
RTVSPost2010PropOp34
 70
     1
102
RTVSPost2010Prop35
280
     0
102
RTVSPost2010PropOp35
 70
     1
102
RTVSPost2010Prop36
280
     0
102
RTVSPost2010PropOp36
 70
     1
102
RTVSPost2010Prop37
 90
       50
102
RTVSPost2010PropOp37
 70
     1
102
RTVSPost2010Prop38
140
0.0
102
RTVSPost2010PropOp38
 70
     1
102
RTVSPost2010Prop39
140
1.0
102
RTVSPost2010PropOp39
 70
     1
102
RTVSPost2010Prop40
 90
        0
102
RTVSPost2010PropOp40
 70
     1
102
RTVSPost2010Prop41ColorIndex
 90
       18
102
RTVSPost2010Prop41ColorRGB
 90
        0
102
RTVSPost2010PropOp41
 70
     1
102
RTVSPost2010Prop42
 90
       50
102
RTVSPost2010PropOp42
 70
     1
102
RTVSPost2010Prop43
 90
        3
102
RTVSPost2010PropOp43
 70
     1
102
RTVSPost2010Prop44ColorIndex
 90
        5
102
RTVSPost2010Prop44ColorRGB
 90
      255
102
RTVSPost2010PropOp44
 70
     1
102
RTVSPost2010Prop45
280
     0
102
RTVSPost2010PropOp45
 70
     1
102
RTVSPost2010Prop46
 90
       50
102
RTVSPost2010PropOp46
 70
     1
102
RTVSPost2010Prop47
 90
       50
102
RTVSPost2010PropOp47
 70
     1
102
RTVSPost2010Prop48
 90
       50
102
RTVSPost2010PropOp48
 70
     1
102
RTVSPost2010Prop49
280
     0
102
RTVSPost2010PropOp49
 70
     1
102
RTVSPost2010Prop50
 90
       50
102
RTVSPost2010PropOp50
 70
     1
102
RTVSPost2010Prop51ColorIndex
 90
      256
102
RTVSPost2010Prop51ColorRGB
 90
-16777216
102
RTVSPost2010PropOp51
 70
     0
102
RTVSPost2010Prop52
140
1.0
102
RTVSPost2010PropOp52
 70
     0
102
RTVSPost2010Prop53
 90
        2
102
RTVSPost2010PropOp53
 70
     1
102
RTVSPost2010Prop54
  1
strokes_ogs.tif
102
RTVSPost2010PropOp54
 70
     1
102
RTVSPost2010Prop55
280
     0
102
RTVSPost2010PropOp55
 70
     1
102
RTVSPost2010Prop56
140
1.0
102
RTVSPost2010PropOp56
 70
     1
102
RTVSPost2010Prop57
140
1.0
102
RTVSPost2010PropOp57
 70
     1
  0
XRECORD
  5
272
102
{ACAD_REACTORS
330
271
102
}
330
271
100
AcDbXrecord
280
     1
102
RTVSPropertyOp0
 70
     1
102
RTVSPropertyOp1
 70
     1
102
RTVSPropertyOp2
 70
     1
102
RTVSPropertyOp3
 70
     1
102
RTVSPropertyOp4
 70
     1
102
RTVSPropertyOp5
 70
     1
102
RTVSPropertyOp6
 70
     1
102
RTVSPropertyOp7
 70
     1
102
RTVSPropertyOp8
 70
     1
102
RTVSPropertyOp9
 70
     1
102
RTVSPropertyOp10
 70
     1
102
RTVSPropertyOp11
 70
     1
102
RTVSPropertyOp12
 70
     1
102
RTVSPropertyOp13
 70
     1
102
RTVSPropertyOp14
 70
     1
102
RTVSPropertyOp15
 70
     1
102
RTVSPropertyOp16
 70
     1
102
RTVSPropertyOp17
 70
     1
102
RTVSPropertyOp18
 70
     1
102
RTVSPropertyOp19
 70
     1
102
RTVSPropertyOp20
 70
     1
102
RTVSPropertyOp21
 70
     1
102
RTVSPropertyOp22
 70
     1
102
RTVSPropertyOp23
 70
     1
102
RTVSPropertyOp24
 70
     1
102
RTVSPropertyOp25
 70
     1
102
RTVSPropertyOp26
 70
     1
102
RTVSPropertyOp27
 70
     1
102
RTVSPropertyOp28
 70
     1
102
RTVSPropertyOp29
 70
     1
102
RTVSPropertyOp30
 70
     1
102
RTVSPropertyOp31
 70
     1
102
RTVSPropertyOp32
 70
     1
102
RTVSPropertyOp33
 70
     1
102
RTVSPropertyOp34
 70
     1
102
RTVSPropertyOp35
 70
     1
102
RTVSPropertyOp36
 70
     1
102
RTVSPropertyOp37
 70
     1
102
RTVSPropertyOp38
 70
     1
102
RTVSPropertyOp39
 70
     1
102
RTVSPropertyOp40
 70
     1
102
RTVSPropertyOp41
 70
     1
102
RTVSPropertyOp42
 70
     1
102
RTVSPropertyOp43
 70
     1
102
RTVSPropertyOp44
 70
     1
102
RTVSPropertyOp45
 70
     1
102
RTVSPropertyOp46
 70
     1
102
RTVSPropertyOp47
 70
     1
102
RTVSPropertyOp48
 70
     1
102
RTVSPropertyOp49
 70
     1
102
RTVSPropertyOp50
 70
     1
102
RTVSPropertyOp51
 70
     0
102
RTVSPropertyOp52
 70
     0
102
RTVSPropertyOp53
 70
     1
102
RTVSPropertyOp54
 70
     1
102
RTVSPropertyOp55
 70
     1
102
RTVSPropertyOp56
 70
     1
102
RTVSPropertyOp57
 70
     1
102
RTVSPost2010Prop28
280
     0
102
RTVSPost2010PropOp28
 70
     1
102
RTVSPost2010Prop29
280
     1
102
RTVSPost2010PropOp29
 70
     1
102
RTVSPost2010Prop30
280
     1
102
RTVSPost2010PropOp30
 70
     1
102
RTVSPost2010Prop31
280
     0
102
RTVSPost2010PropOp31
 70
     1
102
RTVSPost2010Prop32
280
     0
102
RTVSPost2010PropOp32
 70
     1
102
RTVSPost2010Prop33
280
     0
102
RTVSPost2010PropOp33
 70
     1
102
RTVSPost2010Prop34
280
     0
102
RTVSPost2010PropOp34
 70
     1
102
RTVSPost2010Prop35
280
     0
102
RTVSPost2010PropOp35
 70
     1
102
RTVSPost2010Prop36
280
     0
102
RTVSPost2010PropOp36
 70
     1
102
RTVSPost2010Prop37
 90
       50
102
RTVSPost2010PropOp37
 70
     1
102
RTVSPost2010Prop38
140
0.0
102
RTVSPost2010PropOp38
 70
     1
102
RTVSPost2010Prop39
140
1.0
102
RTVSPost2010PropOp39
 70
     1
102
RTVSPost2010Prop40
 90
        0
102
RTVSPost2010PropOp40
 70
     1
102
RTVSPost2010Prop41ColorIndex
 90
       18
102
RTVSPost2010Prop41ColorRGB
 90
        0
102
RTVSPost2010PropOp41
 70
     1
102
RTVSPost2010Prop42
 90
       50
102
RTVSPost2010PropOp42
 70
     1
102
RTVSPost2010Prop43
 90
        3
102
RTVSPost2010PropOp43
 70
     1
102
RTVSPost2010Prop44ColorIndex
 90
        5
102
RTVSPost2010Prop44ColorRGB
 90
      255
102
RTVSPost2010PropOp44
 70
     1
102
RTVSPost2010Prop45
280
     0
102
RTVSPost2010PropOp45
 70
     1
102
RTVSPost2010Prop46
 90
       50
102
RTVSPost2010PropOp46
 70
     1
102
RTVSPost2010Prop47
 90
       50
102
RTVSPost2010PropOp47
 70
     1
102
RTVSPost2010Prop48
 90
       50
102
RTVSPost2010PropOp48
 70
     1
102
RTVSPost2010Prop49
280
     0
102
RTVSPost2010PropOp49
 70
     1
102
RTVSPost2010Prop50
 90
       50
102
RTVSPost2010PropOp50
 70
     1
102
RTVSPost2010Prop51ColorIndex
 90
      256
102
RTVSPost2010Prop51ColorRGB
 90
-16777216
102
RTVSPost2010PropOp51
 70
     0
102
RTVSPost2010Prop52
140
1.0
102
RTVSPost2010PropOp52
 70
     0
102
RTVSPost2010Prop53
 90
        2
102
RTVSPost2010PropOp53
 70
     1
102
RTVSPost2010Prop54
  1
strokes_ogs.tif
102
RTVSPost2010PropOp54
 70
     1
102
RTVSPost2010Prop55
280
     0
102
RTVSPost2010PropOp55
 70
     1
102
RTVSPost2010Prop56
140
1.0
102
RTVSPost2010PropOp56
 70
     1
102
RTVSPost2010Prop57
140
1.0
102
RTVSPost2010PropOp57
 70
     1
  0
XRECORD
  5
274
102
{ACAD_REACTORS
330
273
102
}
330
273
100
AcDbXrecord
280
     1
102
RTVSPropertyOp0
 70
     1
102
RTVSPropertyOp1
 70
     1
102
RTVSPropertyOp2
 70
     1
102
RTVSPropertyOp3
 70
     1
102
RTVSPropertyOp4
 70
     1
102
RTVSPropertyOp5
 70
     1
102
RTVSPropertyOp6
 70
     1
102
RTVSPropertyOp7
 70
     1
102
RTVSPropertyOp8
 70
     1
102
RTVSPropertyOp9
 70
     1
102
RTVSPropertyOp10
 70
     1
102
RTVSPropertyOp11
 70
     1
102
RTVSPropertyOp12
 70
     1
102
RTVSPropertyOp13
 70
     1
102
RTVSPropertyOp14
 70
     1
102
RTVSPropertyOp15
 70
     1
102
RTVSPropertyOp16
 70
     1
102
RTVSPropertyOp17
 70
     1
102
RTVSPropertyOp18
 70
     1
102
RTVSPropertyOp19
 70
     1
102
RTVSPropertyOp20
 70
     1
102
RTVSPropertyOp21
 70
     1
102
RTVSPropertyOp22
 70
     1
102
RTVSPropertyOp23
 70
     1
102
RTVSPropertyOp24
 70
     1
102
RTVSPropertyOp25
 70
     1
102
RTVSPropertyOp26
 70
     1
102
RTVSPropertyOp27
 70
     1
102
RTVSPropertyOp28
 70
     1
102
RTVSPropertyOp29
 70
     1
102
RTVSPropertyOp30
 70
     1
102
RTVSPropertyOp31
 70
     1
102
RTVSPropertyOp32
 70
     1
102
RTVSPropertyOp33
 70
     1
102
RTVSPropertyOp34
 70
     1
102
RTVSPropertyOp35
 70
     1
102
RTVSPropertyOp36
 70
     1
102
RTVSPropertyOp37
 70
     1
102
RTVSPropertyOp38
 70
     1
102
RTVSPropertyOp39
 70
     1
102
RTVSPropertyOp40
 70
     1
102
RTVSPropertyOp41
 70
     1
102
RTVSPropertyOp42
 70
     1
102
RTVSPropertyOp43
 70
     1
102
RTVSPropertyOp44
 70
     1
102
RTVSPropertyOp45
 70
     1
102
RTVSPropertyOp46
 70
     1
102
RTVSPropertyOp47
 70
     1
102
RTVSPropertyOp48
 70
     1
102
RTVSPropertyOp49
 70
     1
102
RTVSPropertyOp50
 70
     1
102
RTVSPropertyOp51
 70
     0
102
RTVSPropertyOp52
 70
     0
102
RTVSPropertyOp53
 70
     1
102
RTVSPropertyOp54
 70
     1
102
RTVSPropertyOp55
 70
     1
102
RTVSPropertyOp56
 70
     1
102
RTVSPropertyOp57
 70
     1
102
RTVSPost2010Prop28
280
     0
102
RTVSPost2010PropOp28
 70
     1
102
RTVSPost2010Prop29
280
     1
102
RTVSPost2010PropOp29
 70
     1
102
RTVSPost2010Prop30
280
     1
102
RTVSPost2010PropOp30
 70
     1
102
RTVSPost2010Prop31
280
     0
102
RTVSPost2010PropOp31
 70
     1
102
RTVSPost2010Prop32
280
     0
102
RTVSPost2010PropOp32
 70
     1
102
RTVSPost2010Prop33
280
     0
102
RTVSPost2010PropOp33
 70
     1
102
RTVSPost2010Prop34
280
     0
102
RTVSPost2010PropOp34
 70
     1
102
RTVSPost2010Prop35
280
     0
102
RTVSPost2010PropOp35
 70
     1
102
RTVSPost2010Prop36
280
     0
102
RTVSPost2010PropOp36
 70
     1
102
RTVSPost2010Prop37
 90
       50
102
RTVSPost2010PropOp37
 70
     1
102
RTVSPost2010Prop38
140
0.0
102
RTVSPost2010PropOp38
 70
     1
102
RTVSPost2010Prop39
140
1.0
102
RTVSPost2010PropOp39
 70
     1
102
RTVSPost2010Prop40
 90
        0
102
RTVSPost2010PropOp40
 70
     1
102
RTVSPost2010Prop41ColorIndex
 90
       18
102
RTVSPost2010Prop41ColorRGB
 90
        0
102
RTVSPost2010PropOp41
 70
     1
102
RTVSPost2010Prop42
 90
       50
102
RTVSPost2010PropOp42
 70
     1
102
RTVSPost2010Prop43
 90
        3
102
RTVSPost2010PropOp43
 70
     1
102
RTVSPost2010Prop44ColorIndex
 90
        5
102
RTVSPost2010Prop44ColorRGB
 90
      255
102
RTVSPost2010PropOp44
 70
     1
102
RTVSPost2010Prop45
280
     0
102
RTVSPost2010PropOp45
 70
     1
102
RTVSPost2010Prop46
 90
       50
102
RTVSPost2010PropOp46
 70
     1
102
RTVSPost2010Prop47
 90
       50
102
RTVSPost2010PropOp47
 70
     1
102
RTVSPost2010Prop48
 90
       50
102
RTVSPost2010PropOp48
 70
     1
102
RTVSPost2010Prop49
280
     0
102
RTVSPost2010PropOp49
 70
     1
102
RTVSPost2010Prop50
 90
       50
102
RTVSPost2010PropOp50
 70
     1
102
RTVSPost2010Prop51ColorIndex
 90
      256
102
RTVSPost2010Prop51ColorRGB
 90
-16777216
102
RTVSPost2010PropOp51
 70
     0
102
RTVSPost2010Prop52
140
1.0
102
RTVSPost2010PropOp52
 70
     0
102
RTVSPost2010Prop53
 90
        2
102
RTVSPost2010PropOp53
 70
     1
102
RTVSPost2010Prop54
  1
strokes_ogs.tif
102
RTVSPost2010PropOp54
 70
     1
102
RTVSPost2010Prop55
280
     0
102
RTVSPost2010PropOp55
 70
     1
102
RTVSPost2010Prop56
140
1.0
102
RTVSPost2010PropOp56
 70
     1
102
RTVSPost2010Prop57
140
1.0
102
RTVSPost2010PropOp57
 70
     1
  0
XRECORD
  5
264
102
{ACAD_REACTORS
330
263
102
}
330
263
100
AcDbXrecord
280
     1
102
RTVSPropertyOp0
 70
     1
102
RTVSPropertyOp1
 70
     1
102
RTVSPropertyOp2
 70
     1
102
RTVSPropertyOp3
 70
     1
102
RTVSPropertyOp4
 70
     1
102
RTVSPropertyOp5
 70
     1
102
RTVSPropertyOp6
 70
     1
102
RTVSPropertyOp7
 70
     1
102
RTVSPropertyOp8
 70
     1
102
RTVSPropertyOp9
 70
     1
102
RTVSPropertyOp10
 70
     1
102
RTVSPropertyOp11
 70
     1
102
RTVSPropertyOp12
 70
     1
102
RTVSPropertyOp13
 70
     1
102
RTVSPropertyOp14
 70
     1
102
RTVSPropertyOp15
 70
     1
102
RTVSPropertyOp16
 70
     1
102
RTVSPropertyOp17
 70
     1
102
RTVSPropertyOp18
 70
     1
102
RTVSPropertyOp19
 70
     1
102
RTVSPropertyOp20
 70
     1
102
RTVSPropertyOp21
 70
     1
102
RTVSPropertyOp22
 70
     1
102
RTVSPropertyOp23
 70
     1
102
RTVSPropertyOp24
 70
     1
102
RTVSPropertyOp25
 70
     1
102
RTVSPropertyOp26
 70
     1
102
RTVSPropertyOp27
 70
     1
102
RTVSPropertyOp28
 70
     1
102
RTVSPropertyOp29
 70
     1
102
RTVSPropertyOp30
 70
     1
102
RTVSPropertyOp31
 70
     1
102
RTVSPropertyOp32
 70
     1
102
RTVSPropertyOp33
 70
     1
102
RTVSPropertyOp34
 70
     1
102
RTVSPropertyOp35
 70
     1
102
RTVSPropertyOp36
 70
     1
102
RTVSPropertyOp37
 70
     1
102
RTVSPropertyOp38
 70
     1
102
RTVSPropertyOp39
 70
     1
102
RTVSPropertyOp40
 70
     1
102
RTVSPropertyOp41
 70
     1
102
RTVSPropertyOp42
 70
     1
102
RTVSPropertyOp43
 70
     1
102
RTVSPropertyOp44
 70
     1
102
RTVSPropertyOp45
 70
     1
102
RTVSPropertyOp46
 70
     1
102
RTVSPropertyOp47
 70
     1
102
RTVSPropertyOp48
 70
     1
102
RTVSPropertyOp49
 70
     1
102
RTVSPropertyOp50
 70
     1
102
RTVSPropertyOp51
 70
     0
102
RTVSPropertyOp52
 70
     0
102
RTVSPropertyOp53
 70
     1
102
RTVSPropertyOp54
 70
     1
102
RTVSPropertyOp55
 70
     1
102
RTVSPropertyOp56
 70
     1
102
RTVSPropertyOp57
 70
     1
102
RTVSPost2010Prop28
280
     0
102
RTVSPost2010PropOp28
 70
     1
102
RTVSPost2010Prop29
280
     1
102
RTVSPost2010PropOp29
 70
     1
102
RTVSPost2010Prop30
280
     1
102
RTVSPost2010PropOp30
 70
     1
102
RTVSPost2010Prop31
280
     0
102
RTVSPost2010PropOp31
 70
     1
102
RTVSPost2010Prop32
280
     0
102
RTVSPost2010PropOp32
 70
     1
102
RTVSPost2010Prop33
280
     0
102
RTVSPost2010PropOp33
 70
     1
102
RTVSPost2010Prop34
280
     0
102
RTVSPost2010PropOp34
 70
     1
102
RTVSPost2010Prop35
280
     0
102
RTVSPost2010PropOp35
 70
     1
102
RTVSPost2010Prop36
280
     0
102
RTVSPost2010PropOp36
 70
     1
102
RTVSPost2010Prop37
 90
       50
102
RTVSPost2010PropOp37
 70
     1
102
RTVSPost2010Prop38
140
0.0
102
RTVSPost2010PropOp38
 70
     1
102
RTVSPost2010Prop39
140
1.0
102
RTVSPost2010PropOp39
 70
     1
102
RTVSPost2010Prop40
 90
        0
102
RTVSPost2010PropOp40
 70
     1
102
RTVSPost2010Prop41ColorIndex
 90
       18
102
RTVSPost2010Prop41ColorRGB
 90
        0
102
RTVSPost2010PropOp41
 70
     1
102
RTVSPost2010Prop42
 90
       50
102
RTVSPost2010PropOp42
 70
     1
102
RTVSPost2010Prop43
 90
        3
102
RTVSPost2010PropOp43
 70
     1
102
RTVSPost2010Prop44ColorIndex
 90
        5
102
RTVSPost2010Prop44ColorRGB
 90
      255
102
RTVSPost2010PropOp44
 70
     1
102
RTVSPost2010Prop45
280
     0
102
RTVSPost2010PropOp45
 70
     1
102
RTVSPost2010Prop46
 90
       50
102
RTVSPost2010PropOp46
 70
     1
102
RTVSPost2010Prop47
 90
       50
102
RTVSPost2010PropOp47
 70
     1
102
RTVSPost2010Prop48
 90
       50
102
RTVSPost2010PropOp48
 70
     1
102
RTVSPost2010Prop49
280
     0
102
RTVSPost2010PropOp49
 70
     1
102
RTVSPost2010Prop50
 90
       50
102
RTVSPost2010PropOp50
 70
     1
102
RTVSPost2010Prop51ColorIndex
 90
      256
102
RTVSPost2010Prop51ColorRGB
 90
-16777216
102
RTVSPost2010PropOp51
 70
     0
102
RTVSPost2010Prop52
140
1.0
102
RTVSPost2010PropOp52
 70
     0
102
RTVSPost2010Prop53
 90
        2
102
RTVSPost2010PropOp53
 70
     1
102
RTVSPost2010Prop54
  1
strokes_ogs.tif
102
RTVSPost2010PropOp54
 70
     1
102
RTVSPost2010Prop55
280
     0
102
RTVSPost2010PropOp55
 70
     1
102
RTVSPost2010Prop56
140
1.0
102
RTVSPost2010PropOp56
 70
     1
102
RTVSPost2010Prop57
140
1.0
102
RTVSPost2010PropOp57
 70
     1
  0
XRECORD
  5
256
102
{ACAD_REACTORS
330
255
102
}
330
255
100
AcDbXrecord
280
     1
102
RTVSPropertyOp0
 70
     1
102
RTVSPropertyOp1
 70
     1
102
RTVSPropertyOp2
 70
     1
102
RTVSPropertyOp3
 70
     1
102
RTVSPropertyOp4
 70
     1
102
RTVSPropertyOp5
 70
     1
102
RTVSPropertyOp6
 70
     1
102
RTVSPropertyOp7
 70
     1
102
RTVSPropertyOp8
 70
     1
102
RTVSPropertyOp9
 70
     1
102
RTVSPropertyOp10
 70
     1
102
RTVSPropertyOp11
 70
     1
102
RTVSPropertyOp12
 70
     1
102
RTVSPropertyOp13
 70
     1
102
RTVSPropertyOp14
 70
     1
102
RTVSPropertyOp15
 70
     1
102
RTVSPropertyOp16
 70
     1
102
RTVSPropertyOp17
 70
     1
102
RTVSPropertyOp18
 70
     1
102
RTVSPropertyOp19
 70
     1
102
RTVSPropertyOp20
 70
     1
102
RTVSPropertyOp21
 70
     1
102
RTVSPropertyOp22
 70
     1
102
RTVSPropertyOp23
 70
     1
102
RTVSPropertyOp24
 70
     1
102
RTVSPropertyOp25
 70
     1
102
RTVSPropertyOp26
 70
     1
102
RTVSPropertyOp27
 70
     1
102
RTVSPropertyOp28
 70
     1
102
RTVSPropertyOp29
 70
     1
102
RTVSPropertyOp30
 70
     1
102
RTVSPropertyOp31
 70
     1
102
RTVSPropertyOp32
 70
     1
102
RTVSPropertyOp33
 70
     1
102
RTVSPropertyOp34
 70
     1
102
RTVSPropertyOp35
 70
     1
102
RTVSPropertyOp36
 70
     1
102
RTVSPropertyOp37
 70
     1
102
RTVSPropertyOp38
 70
     1
102
RTVSPropertyOp39
 70
     1
102
RTVSPropertyOp40
 70
     1
102
RTVSPropertyOp41
 70
     1
102
RTVSPropertyOp42
 70
     1
102
RTVSPropertyOp43
 70
     1
102
RTVSPropertyOp44
 70
     1
102
RTVSPropertyOp45
 70
     1
102
RTVSPropertyOp46
 70
     1
102
RTVSPropertyOp47
 70
     1
102
RTVSPropertyOp48
 70
     1
102
RTVSPropertyOp49
 70
     1
102
RTVSPropertyOp50
 70
     1
102
RTVSPropertyOp51
 70
     0
102
RTVSPropertyOp52
 70
     0
102
RTVSPropertyOp53
 70
     1
102
RTVSPropertyOp54
 70
     1
102
RTVSPropertyOp55
 70
     1
102
RTVSPropertyOp56
 70
     1
102
RTVSPropertyOp57
 70
     1
102
RTVSPost2010Prop28
280
     0
102
RTVSPost2010PropOp28
 70
     1
102
RTVSPost2010Prop29
280
     1
102
RTVSPost2010PropOp29
 70
     1
102
RTVSPost2010Prop30
280
     1
102
RTVSPost2010PropOp30
 70
     1
102
RTVSPost2010Prop31
280
     0
102
RTVSPost2010PropOp31
 70
     1
102
RTVSPost2010Prop32
280
     0
102
RTVSPost2010PropOp32
 70
     1
102
RTVSPost2010Prop33
280
     0
102
RTVSPost2010PropOp33
 70
     1
102
RTVSPost2010Prop34
280
     0
102
RTVSPost2010PropOp34
 70
     1
102
RTVSPost2010Prop35
280
     0
102
RTVSPost2010PropOp35
 70
     1
102
RTVSPost2010Prop36
280
     0
102
RTVSPost2010PropOp36
 70
     1
102
RTVSPost2010Prop37
 90
       50
102
RTVSPost2010PropOp37
 70
     1
102
RTVSPost2010Prop38
140
0.0
102
RTVSPost2010PropOp38
 70
     1
102
RTVSPost2010Prop39
140
1.0
102
RTVSPost2010PropOp39
 70
     1
102
RTVSPost2010Prop40
 90
        0
102
RTVSPost2010PropOp40
 70
     1
102
RTVSPost2010Prop41ColorIndex
 90
       18
102
RTVSPost2010Prop41ColorRGB
 90
        0
102
RTVSPost2010PropOp41
 70
     1
102
RTVSPost2010Prop42
 90
       50
102
RTVSPost2010PropOp42
 70
     1
102
RTVSPost2010Prop43
 90
        3
102
RTVSPost2010PropOp43
 70
     1
102
RTVSPost2010Prop44ColorIndex
 90
        5
102
RTVSPost2010Prop44ColorRGB
 90
      255
102
RTVSPost2010PropOp44
 70
     1
102
RTVSPost2010Prop45
280
     0
102
RTVSPost2010PropOp45
 70
     1
102
RTVSPost2010Prop46
 90
       50
102
RTVSPost2010PropOp46
 70
     1
102
RTVSPost2010Prop47
 90
       50
102
RTVSPost2010PropOp47
 70
     1
102
RTVSPost2010Prop48
 90
       50
102
RTVSPost2010PropOp48
 70
     1
102
RTVSPost2010Prop49
280
     0
102
RTVSPost2010PropOp49
 70
     1
102
RTVSPost2010Prop50
 90
       50
102
RTVSPost2010PropOp50
 70
     1
102
RTVSPost2010Prop51ColorIndex
 90
      256
102
RTVSPost2010Prop51ColorRGB
 90
-16777216
102
RTVSPost2010PropOp51
 70
     0
102
RTVSPost2010Prop52
140
1.0
102
RTVSPost2010PropOp52
 70
     0
102
RTVSPost2010Prop53
 90
        2
102
RTVSPost2010PropOp53
 70
     1
102
RTVSPost2010Prop54
  1
strokes_ogs.tif
102
RTVSPost2010PropOp54
 70
     1
102
RTVSPost2010Prop55
280
     0
102
RTVSPost2010PropOp55
 70
     1
102
RTVSPost2010Prop56
140
1.0
102
RTVSPost2010PropOp56
 70
     1
102
RTVSPost2010Prop57
140
1.0
102
RTVSPost2010PropOp57
 70
     1
  0
XRECORD
  5
276
102
{ACAD_REACTORS
330
275
102
}
330
275
100
AcDbXrecord
280
     1
102
RTVSPropertyOp0
 70
     1
102
RTVSPropertyOp1
 70
     1
102
RTVSPropertyOp2
 70
     1
102
RTVSPropertyOp3
 70
     1
102
RTVSPropertyOp4
 70
     1
102
RTVSPropertyOp5
 70
     1
102
RTVSPropertyOp6
 70
     1
102
RTVSPropertyOp7
 70
     1
102
RTVSPropertyOp8
 70
     1
102
RTVSPropertyOp9
 70
     1
102
RTVSPropertyOp10
 70
     1
102
RTVSPropertyOp11
 70
     1
102
RTVSPropertyOp12
 70
     1
102
RTVSPropertyOp13
 70
     1
102
RTVSPropertyOp14
 70
     1
102
RTVSPropertyOp15
 70
     1
102
RTVSPropertyOp16
 70
     1
102
RTVSPropertyOp17
 70
     1
102
RTVSPropertyOp18
 70
     1
102
RTVSPropertyOp19
 70
     1
102
RTVSPropertyOp20
 70
     1
102
RTVSPropertyOp21
 70
     1
102
RTVSPropertyOp22
 70
     1
102
RTVSPropertyOp23
 70
     1
102
RTVSPropertyOp24
 70
     1
102
RTVSPropertyOp25
 70
     1
102
RTVSPropertyOp26
 70
     1
102
RTVSPropertyOp27
 70
     1
102
RTVSPropertyOp28
 70
     1
102
RTVSPropertyOp29
 70
     1
102
RTVSPropertyOp30
 70
     1
102
RTVSPropertyOp31
 70
     1
102
RTVSPropertyOp32
 70
     1
102
RTVSPropertyOp33
 70
     1
102
RTVSPropertyOp34
 70
     1
102
RTVSPropertyOp35
 70
     1
102
RTVSPropertyOp36
 70
     1
102
RTVSPropertyOp37
 70
     1
102
RTVSPropertyOp38
 70
     1
102
RTVSPropertyOp39
 70
     1
102
RTVSPropertyOp40
 70
     1
102
RTVSPropertyOp41
 70
     1
102
RTVSPropertyOp42
 70
     1
102
RTVSPropertyOp43
 70
     1
102
RTVSPropertyOp44
 70
     1
102
RTVSPropertyOp45
 70
     1
102
RTVSPropertyOp46
 70
     1
102
RTVSPropertyOp47
 70
     1
102
RTVSPropertyOp48
 70
     1
102
RTVSPropertyOp49
 70
     1
102
RTVSPropertyOp50
 70
     1
102
RTVSPropertyOp51
 70
     0
102
RTVSPropertyOp52
 70
     0
102
RTVSPropertyOp53
 70
     1
102
RTVSPropertyOp54
 70
     1
102
RTVSPropertyOp55
 70
     1
102
RTVSPropertyOp56
 70
     1
102
RTVSPropertyOp57
 70
     1
102
RTVSPost2010Prop28
280
     0
102
RTVSPost2010PropOp28
 70
     1
102
RTVSPost2010Prop29
280
     1
102
RTVSPost2010PropOp29
 70
     1
102
RTVSPost2010Prop30
280
     1
102
RTVSPost2010PropOp30
 70
     1
102
RTVSPost2010Prop31
280
     0
102
RTVSPost2010PropOp31
 70
     1
102
RTVSPost2010Prop32
280
     0
102
RTVSPost2010PropOp32
 70
     1
102
RTVSPost2010Prop33
280
     0
102
RTVSPost2010PropOp33
 70
     1
102
RTVSPost2010Prop34
280
     0
102
RTVSPost2010PropOp34
 70
     1
102
RTVSPost2010Prop35
280
     0
102
RTVSPost2010PropOp35
 70
     1
102
RTVSPost2010Prop36
280
     0
102
RTVSPost2010PropOp36
 70
     1
102
RTVSPost2010Prop37
 90
       50
102
RTVSPost2010PropOp37
 70
     1
102
RTVSPost2010Prop38
140
0.0
102
RTVSPost2010PropOp38
 70
     1
102
RTVSPost2010Prop39
140
1.0
102
RTVSPost2010PropOp39
 70
     1
102
RTVSPost2010Prop40
 90
        0
102
RTVSPost2010PropOp40
 70
     1
102
RTVSPost2010Prop41ColorIndex
 90
       18
102
RTVSPost2010Prop41ColorRGB
 90
        0
102
RTVSPost2010PropOp41
 70
     1
102
RTVSPost2010Prop42
 90
       50
102
RTVSPost2010PropOp42
 70
     1
102
RTVSPost2010Prop43
 90
        3
102
RTVSPost2010PropOp43
 70
     1
102
RTVSPost2010Prop44ColorIndex
 90
        5
102
RTVSPost2010Prop44ColorRGB
 90
      255
102
RTVSPost2010PropOp44
 70
     1
102
RTVSPost2010Prop45
280
     0
102
RTVSPost2010PropOp45
 70
     1
102
RTVSPost2010Prop46
 90
       50
102
RTVSPost2010PropOp46
 70
     1
102
RTVSPost2010Prop47
 90
       50
102
RTVSPost2010PropOp47
 70
     1
102
RTVSPost2010Prop48
 90
       50
102
RTVSPost2010PropOp48
 70
     1
102
RTVSPost2010Prop49
280
     0
102
RTVSPost2010PropOp49
 70
     1
102
RTVSPost2010Prop50
 90
       50
102
RTVSPost2010PropOp50
 70
     1
102
RTVSPost2010Prop51ColorIndex
 90
      256
102
RTVSPost2010Prop51ColorRGB
 90
-16777216
102
RTVSPost2010PropOp51
 70
     0
102
RTVSPost2010Prop52
140
1.0
102
RTVSPost2010PropOp52
 70
     0
102
RTVSPost2010Prop53
 90
        2
102
RTVSPost2010PropOp53
 70
     1
102
RTVSPost2010Prop54
  1
strokes_ogs.tif
102
RTVSPost2010PropOp54
 70
     1
102
RTVSPost2010Prop55
280
     0
102
RTVSPost2010PropOp55
 70
     1
102
RTVSPost2010Prop56
140
1.0
102
RTVSPost2010PropOp56
 70
     1
102
RTVSPost2010Prop57
140
1.0
102
RTVSPost2010PropOp57
 70
     1
  0
ENDSEC
  0
EOF
