  0
SECTION
  2
HEADER
  9
$ACADVER
  1
AC1032
  9
$ACADMAINTVER
 90
      155
  9
$DWGCODEPAGE
  3
ANSI_950
  9
$REQUIREDVERSIONS
160
                 0
  9
$INSBASE
 10
0.0
 20
0.0
 30
0.0
  9
$EXTMIN
 10
1.000000000000000E+20
 20
1.000000000000000E+20
 30
1.000000000000000E+20
  9
$EXTMAX
 10
-1.000000000000000E+20
 20
-1.000000000000000E+20
 30
-1.000000000000000E+20
  9
$LIMMIN
 10
0.0
 20
0.0
  9
$LIMMAX
 10
12.0
 20
9.0
  9
$ORTHOMODE
 70
     0
  9
$REGENMODE
 70
     1
  9
$FILLMODE
 70
     1
  9
$QTEXTMODE
 70
     0
  9
$MIRRTEXT
 70
     0
  9
$LTSCALE
 40
1.0
  9
$ATTMODE
 70
     1
  9
$TEXTSIZE
 40
0.2
  9
$TRACEWID
 40
0.05
  9
$TEXTSTYLE
  7
Standard
  9
$CLAYER
  8
0
  9
$CELTYPE
  6
ByLayer
  9
$CECOLOR
 62
   256
  9
$CELTSCALE
 40
1.0
  9
$DISPSILH
 70
     0
  9
$DIMSCALE
 40
1.0
  9
$DIMASZ
 40
0.18
  9
$DIMEXO
 40
0.0625
  9
$DIMDLI
 40
0.38
  9
$DIMRND
 40
0.0
  9
$DIMDLE
 40
0.0
  9
$DIMEXE
 40
0.18
  9
$DIMTP
 40
0.0
  9
$DIMTM
 40
0.0
  9
$DIMTXT
 40
0.18
  9
$DIMCEN
 40
0.09
  9
$DIMTSZ
 40
0.0
  9
$DIMTOL
 70
     0
  9
$DIMLIM
 70
     0
  9
$DIMTIH
 70
     1
  9
$DIMTOH
 70
     1
  9
$DIMSE1
 70
     0
  9
$DIMSE2
 70
     0
  9
$DIMTAD
 70
     0
  9
$DIMZIN
 70
     0
  9
$DIMBLK
  1

  9
$DIMASO
 70
     1
  9
$DIMSHO
 70
     1
  9
$DIMPOST
  1

  9
$DIMAPOST
  1

  9
$DIMALT
 70
     0
  9
$DIMALTD
 70
     2
  9
$DIMALTF
 40
25.4
  9
$DIMLFAC
 40
1.0
  9
$DIMTOFL
 70
     0
  9
$DIMTVP
 40
0.0
  9
$DIMTIX
 70
     0
  9
$DIMSOXD
 70
     0
  9
$DIMSAH
 70
     0
  9
$DIMBLK1
  1

  9
$DIMBLK2
  1

  9
$DIMSTYLE
  2
Standard
  9
$DIMCLRD
 70
     0
  9
$DIMCLRE
 70
     0
  9
$DIMCLRT
 70
     0
  9
$DIMTFAC
 40
1.0
  9
$DIMGAP
 40
0.09
  9
$DIMJUST
 70
     0
  9
$DIMSD1
 70
     0
  9
$DIMSD2
 70
     0
  9
$DIMTOLJ
 70
     1
  9
$DIMTZIN
 70
     0
  9
$DIMALTZ
 70
     0
  9
$DIMALTTZ
 70
     0
  9
$DIMUPT
 70
     0
  9
$DIMDEC
 70
     4
  9
$DIMTDEC
 70
     4
  9
$DIMALTU
 70
     2
  9
$DIMALTTD
 70
     2
  9
$DIMTXSTY
  7
Standard
  9
$DIMAUNIT
 70
     0
  9
$DIMADEC
 70
     0
  9
$DIMALTRND
 40
0.0
  9
$DIMAZIN
 70
     0
  9
$DIMDSEP
 70
    46
  9
$DIMATFIT
 70
     3
  9
$DIMFRAC
 70
     0
  9
$DIMLDRBLK
  1

  9
$DIMLUNIT
 70
     2
  9
$DIMLWD
 70
    -2
  9
$DIMLWE
 70
    -2
  9
$DIMTMOVE
 70
     0
  9
$DIMFXL
 40
1.0
  9
$DIMFXLON
 70
     0
  9
$DIMJOGANG
 40
0.7853981633974483
  9
$DIMTFILL
 70
     0
  9
$DIMTFILLCLR
 70
     0
  9
$DIMARCSYM
 70
     0
  9
$DIMLTYPE
  6

  9
$DIMLTEX1
  6

  9
$DIMLTEX2
  6

  9
$DIMTXTDIRECTION
 70
     0
  9
$LUNITS
 70
     2
  9
$LUPREC
 70
     4
  9
$SKETCHINC
 40
0.1
  9
$FILLETRAD
 40
0.0
  9
$AUNITS
 70
     0
  9
$AUPREC
 70
     0
  9
$MENU
  1
.
  9
$ELEVATION
 40
0.0
  9
$PELEVATION
 40
0.0
  9
$THICKNESS
 40
0.0
  9
$LIMCHECK
 70
     0
  9
$CHAMFERA
 40
0.0
  9
$CHAMFERB
 40
0.0
  9
$CHAMFERC
 40
0.0
  9
$CHAMFERD
 40
0.0
  9
$SKPOLY
 70
     0
  9
$TDCREATE
 40
2460520.934016204
  9
$TDUCREATE
 40
2460520.600682871
  9
$TDUPDATE
 40
2460520.934016204
  9
$TDUUPDATE
 40
2460520.600682871
  9
$TDINDWG
 40
0.0000000000
  9
$TDUSRTIMER
 40
0.0000000000
  9
$USRTIMER
 70
     1
  9
$ANGBASE
 50
0.0
  9
$ANGDIR
 70
     0
  9
$PDMODE
 70
     0
  9
$PDSIZE
 40
0.0
  9
$PLINEWID
 40
0.0
  9
$SPLFRAME
 70
     0
  9
$SPLINETYPE
 70
     6
  9
$SPLINESEGS
 70
     8
  9
$HANDSEED
  5
C1
  9
$SURFTAB1
 70
     6
  9
$SURFTAB2
 70
     6
  9
$SURFTYPE
 70
     6
  9
$SURFU
 70
     6
  9
$SURFV
 70
     6
  9
$UCSBASE
  2

  9
$UCSNAME
  2

  9
$UCSORG
 10
0.0
 20
0.0
 30
0.0
  9
$UCSXDIR
 10
1.0
 20
0.0
 30
0.0
  9
$UCSYDIR
 10
0.0
 20
1.0
 30
0.0
  9
$UCSORTHOREF
  2

  9
$UCSORTHOVIEW
 70
     0
  9
$UCSORGTOP
 10
0.0
 20
0.0
 30
0.0
  9
$UCSORGBOTTOM
 10
0.0
 20
0.0
 30
0.0
  9
$UCSORGLEFT
 10
0.0
 20
0.0
 30
0.0
  9
$UCSORGRIGHT
 10
0.0
 20
0.0
 30
0.0
  9
$UCSORGFRONT
 10
0.0
 20
0.0
 30
0.0
  9
$UCSORGBACK
 10
0.0
 20
0.0
 30
0.0
  9
$PUCSBASE
  2

  9
$PUCSNAME
  2

  9
$PUCSORG
 10
0.0
 20
0.0
 30
0.0
  9
$PUCSXDIR
 10
1.0
 20
0.0
 30
0.0
  9
$PUCSYDIR
 10
0.0
 20
1.0
 30
0.0
  9
$PUCSORTHOREF
  2

  9
$PUCSORTHOVIEW
 70
     0
  9
$PUCSORGTOP
 10
0.0
 20
0.0
 30
0.0
  9
$PUCSORGBOTTOM
 10
0.0
 20
0.0
 30
0.0
  9
$PUCSORGLEFT
 10
0.0
 20
0.0
 30
0.0
  9
$PUCSORGRIGHT
 10
0.0
 20
0.0
 30
0.0
  9
$PUCSORGFRONT
 10
0.0
 20
0.0
 30
0.0
  9
$PUCSORGBACK
 10
0.0
 20
0.0
 30
0.0
  9
$USERI1
 70
     0
  9
$USERI2
 70
     0
  9
$USERI3
 70
     0
  9
$USERI4
 70
     0
  9
$USERI5
 70
     0
  9
$USERR1
 40
0.0
  9
$USERR2
 40
0.0
  9
$USERR3
 40
0.0
  9
$USERR4
 40
0.0
  9
$USERR5
 40
0.0
  9
$WORLDVIEW
 70
     1
  9
$SHADEDGE
 70
     3
  9
$SHADEDIF
 70
    70
  9
$TILEMODE
 70
     1
  9
$MAXACTVP
 70
    64
  9
$PINSBASE
 10
0.0
 20
0.0
 30
0.0
  9
$PLIMCHECK
 70
     0
  9
$PEXTMIN
 10
1.000000000000000E+20
 20
1.000000000000000E+20
 30
1.000000000000000E+20
  9
$PEXTMAX
 10
-1.000000000000000E+20
 20
-1.000000000000000E+20
 30
-1.000000000000000E+20
  9
$PLIMMIN
 10
0.0
 20
0.0
  9
$PLIMMAX
 10
12.0
 20
9.0
  9
$UNITMODE
 70
     0
  9
$VISRETAIN
 70
     1
  9
$PLINEGEN
 70
     0
  9
$PSLTSCALE
 70
     1
  9
$TREEDEPTH
 70
  3020
  9
$CMLSTYLE
  2
Standard
  9
$CMLJUST
 70
     0
  9
$CMLSCALE
 40
1.0
  9
$PROXYGRAPHICS
 70
     1
  9
$MEASUREMENT
 70
     0
  9
$CELWEIGHT
370
    -1
  9
$ENDCAPS
280
     0
  9
$JOINSTYLE
280
     0
  9
$LWDISPLAY
290
     1
  9
$INSUNITS
 70
     0
  9
$HYPERLINKBASE
  1

  9
$STYLESHEET
  1

  9
$XEDIT
290
     1
  9
$CEPSNTYPE
380
     0
  9
$PSTYLEMODE
290
     1
  9
$FINGERPRINTGUID
  2
{B12F26CC-AA1F-DE46-91F2-D4BA90CDD709}
  9
$VERSIONGUID
  2
{059E1831-39B9-1245-8F5B-FE55FD422769}
  9
$EXTNAMES
290
     1
  9
$PSVPSCALE
 40
0.0
  9
$OLESTARTUP
290
     0
  9
$SORTENTS
280
   127
  9
$INDEXCTL
280
     0
  9
$HIDETEXT
280
     1
  9
$XCLIPFRAME
280
     2
  9
$HALOGAP
280
     0
  9
$OBSCOLOR
 70
   257
  9
$OBSLTYPE
280
     0
  9
$INTERSECTIONDISPLAY
280
     0
  9
$INTERSECTIONCOLOR
 70
   257
  9
$DIMASSOC
280
     2
  9
$PROJECTNAME
  1

  9
$CAMERADISPLAY
290
     0
  9
$LENSLENGTH
 40
50.0
  9
$CAMERAHEIGHT
 40
0.0
  9
$STEPSPERSEC
 40
2.0
  9
$STEPSIZE
 40
6.0
  9
$3DDWFPREC
 40
2.0
  9
$PSOLWIDTH
 40
0.25
  9
$PSOLHEIGHT
 40
4.0
  9
$LOFTANG1
 40
1.570796326794896
  9
$LOFTANG2
 40
1.570796326794896
  9
$LOFTMAG1
 40
0.0
  9
$LOFTMAG2
 40
0.0
  9
$LOFTPARAM
 70
     7
  9
$LOFTNORMALS
280
     1
  9
$LATITUDE
 40
37.795
  9
$LONGITUDE
 40
-122.394
  9
$NORTHDIRECTION
 40
0.0
  9
$TIMEZONE
 70
 -8000
  9
$LIGHTGLYPHDISPLAY
280
     1
  9
$TILEMODELIGHTSYNCH
280
     1
  9
$CMATERIAL
347
11
  9
$SOLIDHIST
280
     0
  9
$SHOWHIST
280
     1
  9
$DWFFRAME
280
     2
  9
$DGNFRAME
280
     0
  9
$REALWORLDSCALE
290
     1
  9
$INTERFERECOLOR
 62
     1
  9
$INTERFEREOBJVS
345
33
  9
$INTERFEREVPVS
346
30
  9
$CSHADOW
280
     0
  9
$SHADOWPLANELOCATION
 40
0.0
  0
ENDSEC
  0
SECTION
  2
CLASSES
  0
CLASS
  1
ACDBDICTIONARYWDFLT
  2
AcDbDictionaryWithDefault
  3
ObjectDBX Classes
 90
        0
 91
        1
280
     0
281
     0
  0
CLASS
  1
MATERIAL
  2
AcDbMaterial
  3
ObjectDBX Classes
 90
     1153
 91
        3
280
     0
281
     0
  0
CLASS
  1
VISUALSTYLE
  2
AcDbVisualStyle
  3
ObjectDBX Classes
 90
     4095
 91
       24
280
     0
281
     0
  0
CLASS
  1
SCALE
  2
AcDbScale
  3
ObjectDBX Classes
 90
     1153
 91
       17
280
     0
281
     0
  0
CLASS
  1
TABLESTYLE
  2
AcDbTableStyle
  3
ObjectDBX Classes
 90
     4095
 91
        1
280
     0
281
     0
  0
CLASS
  1
MLEADERSTYLE
  2
AcDbMLeaderStyle
  3
ACDB_MLEADERSTYLE_CLASS
 90
     4095
 91
        1
280
     0
281
     0
  0
CLASS
  1
ACDBSECTIONVIEWSTYLE
  2
AcDbSectionViewStyle
  3
ObjectDBX Classes
 90
     1025
 91
        1
280
     0
281
     0
  0
CLASS
  1
ACDBDETAILVIEWSTYLE
  2
AcDbDetailViewStyle
  3
ObjectDBX Classes
 90
     1025
 91
        1
280
     0
281
     0
  0
CLASS
  1
DICTIONARYVAR
  2
AcDbDictionaryVar
  3
ObjectDBX Classes
 90
        0
 91
        5
280
     0
281
     0
  0
CLASS
  1
CELLSTYLEMAP
  2
AcDbCellStyleMap
  3
ObjectDBX Classes
 90
     1152
 91
        1
280
     0
281
     0
  0
ENDSEC
  0
SECTION
  2
TABLES
  0
TABLE
  2
VPORT
  5
8
330
0
100
AcDbSymbolTable
 70
     1
  0
VPORT
  5
57
330
8
100
AcDbSymbolTableRecord
100
AcDbViewportTableRecord
  2
*Active
 70
     0
 10
0.0
 20
0.0
 11
1.0
 21
1.0
 12
0.0
 22
0.0
 13
0.0
 23
0.0
 14
1.0
 24
1.0
 15
0.0
 25
0.0
 16
0.0
 26
0.0
 36
1.0
 17
337.1810913085937
 27
475.2283325195312
 37
0.0
 40
969.4657983398437
 41
0.709513865726295
 42
50.0
 43
0.0
 44
0.0
 50
0.0
 51
0.0
 71
     0
 72
   100
 73
     1
 74
     0
 75
     1
 76
     0
 77
     0
 78
     0
281
     0
 65
     1
110
0.0
120
0.0
130
0.0
111
1.0
121
0.0
131
0.0
112
0.0
122
1.0
132
0.0
 79
     0
146
0.0
 60
     3
 61
     5
292
     1
282
     1
141
0.0
142
0.0
 63
   250
421
  3355443
  0
ENDTAB
  0
TABLE
  2
LTYPE
  5
5
330
0
100
AcDbSymbolTable
 70
     1
  0
LTYPE
  5
5B
330
5
100
AcDbSymbolTableRecord
100
AcDbLinetypeTableRecord
  2
ByBlock
 70
     0
  3

 72
    65
 73
     0
 40
0.0
  0
LTYPE
  5
5C
330
5
100
AcDbSymbolTableRecord
100
AcDbLinetypeTableRecord
  2
ByLayer
 70
     0
  3

 72
    65
 73
     0
 40
0.0
  0
LTYPE
  5
5D
330
5
100
AcDbSymbolTableRecord
100
AcDbLinetypeTableRecord
  2
Continuous
 70
     0
  3
Solid line
 72
    65
 73
     0
 40
0.0
  0
ENDTAB
  0
TABLE
  2
LAYER
  5
2
330
0
100
AcDbSymbolTable
 70
     2
  0
LAYER
  5
54
330
2
100
AcDbSymbolTableRecord
100
AcDbLayerTableRecord
  2
0
 70
     0
 62
     7
  6
Continuous
370
    -3
390
F
347
21
348
0
  0
LAYER
  5
78
330
2
100
AcDbSymbolTableRecord
100
AcDbLayerTableRecord
  2
svg38
 70
     0
 62
     7
  6
Continuous
370
     0
390
F
347
21
348
0
  0
ENDTAB
  0
TABLE
  2
STYLE
  5
3
330
0
100
AcDbSymbolTable
 70
     2
  0
STYLE
  5
55
330
3
100
AcDbSymbolTableRecord
100
AcDbTextStyleTableRecord
  2
Standard
 70
     0
 40
0.0
 41
1.0
 50
0.0
 71
     0
 42
0.2
  3
txt
  4

  0
STYLE
  5
5A
330
3
100
AcDbSymbolTableRecord
100
AcDbTextStyleTableRecord
  2
Annotative
 70
     0
 40
0.0
 41
1.0
 50
0.0
 71
     0
 42
0.2
  3
txt
  4

1001
AcadAnnotative
1000
AnnotativeData
1002
{
1070
     1
1070
     1
1002
}
  0
ENDTAB
  0
TABLE
  2
VIEW
  5
6
330
0
100
AcDbSymbolTable
 70
     0
  0
ENDTAB
  0
TABLE
  2
UCS
  5
7
330
0
100
AcDbSymbolTable
 70
     0
  0
ENDTAB
  0
TABLE
  2
APPID
  5
9
330
0
100
AcDbSymbolTable
 70
     2
  0
APPID
  5
56
330
9
100
AcDbSymbolTableRecord
100
AcDbRegAppTableRecord
  2
ACAD
 70
     0
  0
APPID
  5
5E
330
9
100
AcDbSymbolTableRecord
100
AcDbRegAppTableRecord
  2
AcadAnnotative
 70
     0
  0
ENDTAB
  0
TABLE
  2
DIMSTYLE
  5
A
330
0
100
AcDbSymbolTable
 70
     2
100
AcDbDimStyleTable
 71
     0
  0
DIMSTYLE
105
58
330
A
100
AcDbSymbolTableRecord
100
AcDbDimStyleTableRecord
  2
Standard
 70
     0
340
55
  0
DIMSTYLE
105
59
330
A
100
AcDbSymbolTableRecord
100
AcDbDimStyleTableRecord
  2
Annotative
 70
     0
340
55
1001
AcadAnnotative
1000
AnnotativeData
1002
{
1070
     1
1070
     1
1002
}
  0
ENDTAB
  0
TABLE
  2
BLOCK_RECORD
  5
1
330
0
100
AcDbSymbolTable
 70
     6
  0
BLOCK_RECORD
  5
70
330
1
100
AcDbSymbolTableRecord
100
AcDbBlockTableRecord
  2
*Model_Space
340
73
 70
     0
280
     1
281
     0
  0
BLOCK_RECORD
  5
6C
330
1
100
AcDbSymbolTableRecord
100
AcDbBlockTableRecord
  2
*Paper_Space
340
6F
 70
     0
280
     1
281
     0
  0
BLOCK_RECORD
  5
74
330
1
100
AcDbSymbolTableRecord
100
AcDbBlockTableRecord
  2
*Paper_Space0
340
77
 70
     0
280
     1
281
     0
  0
BLOCK_RECORD
  5
79
330
1
100
AcDbSymbolTableRecord
100
AcDbBlockTableRecord
  2
Block_0
340
0
102
{BLKREFS
331
7A
102
}
 70
     0
280
     1
281
     0
  0
BLOCK_RECORD
  5
7D
330
1
100
AcDbSymbolTableRecord
100
AcDbBlockTableRecord
  2
Block_1
340
0
102
{BLKREFS
331
7E
102
}
 70
     0
280
     1
281
     0
  0
BLOCK_RECORD
  5
8B
330
1
100
AcDbSymbolTableRecord
100
AcDbBlockTableRecord
  2
Block_2
340
0
102
{BLKREFS
331
8C
102
}
 70
     0
280
     1
281
     0
  0
BLOCK_RECORD
  5
98
330
1
100
AcDbSymbolTableRecord
100
AcDbBlockTableRecord
  2
Block_3
340
0
102
{BLKREFS
331
99
102
}
 70
     0
280
     1
281
     0
  0
BLOCK_RECORD
  5
A7
330
1
100
AcDbSymbolTableRecord
100
AcDbBlockTableRecord
  2
Block_4
340
0
102
{BLKREFS
331
A8
102
}
 70
     0
280
     1
281
     0
  0
ENDTAB
  0
ENDSEC
  0
SECTION
  2
BLOCKS
  0
BLOCK
  5
71
330
70
100
AcDbEntity
  8
0
100
AcDbBlockBegin
  2
*Model_Space
 70
     0
 10
0.0
 20
0.0
 30
0.0
  3
*Model_Space
  1

  0
ENDBLK
  5
72
330
70
100
AcDbEntity
  8
0
100
AcDbBlockEnd
  0
BLOCK
  5
6D
330
6C
100
AcDbEntity
 67
     1
  8
0
100
AcDbBlockBegin
  2
*Paper_Space
 70
     0
 10
0.0
 20
0.0
 30
0.0
  3
*Paper_Space
  1

  0
ENDBLK
  5
6E
330
6C
100
AcDbEntity
 67
     1
  8
0
100
AcDbBlockEnd
  0
BLOCK
  5
75
330
74
100
AcDbEntity
 67
     1
  8
0
100
AcDbBlockBegin
  2
*Paper_Space0
 70
     0
 10
0.0
 20
0.0
 30
0.0
  3
*Paper_Space0
  1

  0
ENDBLK
  5
76
330
74
100
AcDbEntity
 67
     1
  8
0
100
AcDbBlockEnd
  0
BLOCK
  5
7B
330
79
100
AcDbEntity
  8
0
100
AcDbBlockBegin
  2
Block_0
 70
     0
 10
0.0
 20
0.0
 30
0.0
  3
Block_0
  1

  0
ENDBLK
  5
7C
330
79
100
AcDbEntity
  8
0
100
AcDbBlockEnd
  0
BLOCK
  5
7F
330
7D
100
AcDbEntity
  8
0
100
AcDbBlockBegin
  2
Block_1
 70
     0
 10
0.0
 20
0.0
 30
0.0
  3
Block_1
  1

  0
SPLINE
  5
81
330
7D
100
AcDbEntity
  8
svg38
 62
   250
420
  2299925
370
    20
100
AcDbSpline
210
0.0
220
0.0
230
1.0
 70
    11
 71
     3
 72
    32
 73
    28
 74
     0
 42
0.0000000001
 43
0.0000000001
 40
0.0
 40
0.0
 40
0.0
 40
0.0
 40
1.0
 40
1.0
 40
1.0
 40
2.0
 40
2.0
 40
2.0
 40
3.0
 40
3.0
 40
3.0
 40
4.0
 40
4.0
 40
4.0
 40
5.0
 40
5.0
 40
5.0
 40
6.0
 40
6.0
 40
6.0
 40
7.0
 40
7.0
 40
7.0
 40
8.0
 40
8.0
 40
8.0
 40
9.0
 40
9.0
 40
9.0
 40
9.0
 10
62.64567211519079
 20
70.58264211819914
 30
0.0
 10
62.64567211519079
 20
70.58264211819914
 30
0.0
 10
54.42520052692088
 20
70.58264211819914
 30
0.0
 10
54.42520052692088
 20
70.58264211819914
 30
0.0
 10
54.14173487077551
 20
70.58264211819914
 30
0.0
 10
54.42520052692088
 20
70.29916024208069
 30
0.0
 10
54.42520052692088
 20
70.58264211819914
 30
0.0
 10
54.42520052692088
 20
70.58264211819914
 30
0.0
 10
54.42520052692088
 20
78.51961561037751
 30
0.0
 10
54.42520052692088
 20
78.51961561037751
 30
0.0
 10
54.42520052692088
 20
78.80309748649597
 30
0.0
 10
54.14173487077551
 20
78.51961561037751
 30
0.0
 10
54.42520052692088
 20
78.51961561037751
 30
0.0
 10
54.42520052692088
 20
78.51961561037751
 30
0.0
 10
70.86614370346069
 20
78.51961561037751
 30
0.0
 10
70.86614370346069
 20
78.51961561037751
 30
0.0
 10
71.14960935960607
 20
78.51961561037751
 30
0.0
 10
70.86614370346069
 20
78.80309748649597
 30
0.0
 10
70.86614370346069
 20
78.51961561037751
 30
0.0
 10
70.86614370346069
 20
78.51961561037751
 30
0.0
 10
70.86614370346069
 20
70.58264211819914
 30
0.0
 10
70.86614370346069
 20
70.58264211819914
 30
0.0
 10
70.86614370346069
 20
70.29916024208069
 30
0.0
 10
71.14960935960607
 20
70.58264211819914
 30
0.0
 10
70.86614370346069
 20
70.58264211819914
 30
0.0
 10
70.86614370346069
 20
70.58264211819914
 30
0.0
 10
62.64567211519079
 20
70.58264211819914
 30
0.0
 10
62.64567211519079
 20
70.58264211819914
 30
0.0
  0
SPLINE
  5
82
330
7D
100
AcDbEntity
  8
svg38
 62
   250
420
  2299925
370
    20
100
AcDbSpline
210
0.0
220
0.0
230
1.0
 70
    11
 71
     3
 72
    32
 73
    28
 74
     0
 42
0.0000000001
 43
0.0000000001
 40
0.0
 40
0.0
 40
0.0
 40
0.0
 40
1.0
 40
1.0
 40
1.0
 40
2.0
 40
2.0
 40
2.0
 40
3.0
 40
3.0
 40
3.0
 40
4.0
 40
4.0
 40
4.0
 40
5.0
 40
5.0
 40
5.0
 40
6.0
 40
6.0
 40
6.0
 40
7.0
 40
7.0
 40
7.0
 40
8.0
 40
8.0
 40
8.0
 40
9.0
 40
9.0
 40
9.0
 40
9.0
 10
96.66141568619423
 20
70.58264211819914
 30
0.0
 10
96.66141568619423
 20
70.58264211819914
 30
0.0
 10
88.44094950458202
 20
70.58264211819914
 30
0.0
 10
88.44094950458202
 20
70.58264211819914
 30
0.0
 10
88.15748384843663
 20
70.58264211819914
 30
0.0
 10
88.44094950458202
 20
70.29916024208069
 30
0.0
 10
88.44094950458202
 20
70.58264211819914
 30
0.0
 10
88.44094950458202
 20
70.58264211819914
 30
0.0
 10
88.44094950458202
 20
78.51961561037751
 30
0.0
 10
88.44094950458202
 20
78.51961561037751
 30
0.0
 10
88.44094950458202
 20
78.80309748649597
 30
0.0
 10
88.15748384843663
 20
78.51961561037751
 30
0.0
 10
88.44094950458202
 20
78.51961561037751
 30
0.0
 10
88.44094950458202
 20
78.51961561037751
 30
0.0
 10
104.8818926811218
 20
78.51961561037751
 30
0.0
 10
104.8818926811218
 20
78.51961561037751
 30
0.0
 10
105.1653529306095
 20
78.51961561037751
 30
0.0
 10
104.8818926811218
 20
78.80309748649597
 30
0.0
 10
104.8818926811218
 20
78.51961561037751
 30
0.0
 10
104.8818926811218
 20
78.51961561037751
 30
0.0
 10
104.8818926811218
 20
70.58264211819914
 30
0.0
 10
104.8818926811218
 20
70.58264211819914
 30
0.0
 10
104.8818926811218
 20
70.29916024208069
 30
0.0
 10
105.1653529306095
 20
70.58264211819914
 30
0.0
 10
104.8818926811218
 20
70.58264211819914
 30
0.0
 10
104.8818926811218
 20
70.58264211819914
 30
0.0
 10
96.66141568619423
 20
70.58264211819914
 30
0.0
 10
96.66141568619423
 20
70.58264211819914
 30
0.0
  0
SPLINE
  5
83
330
7D
100
AcDbEntity
  8
svg38
 62
   250
420
  2299925
370
    20
100
AcDbSpline
210
0.0
220
0.0
230
1.0
 70
    11
 71
     3
 72
    32
 73
    28
 74
     0
 42
0.0000000001
 43
0.0000000001
 40
0.0
 40
0.0
 40
0.0
 40
0.0
 40
1.0
 40
1.0
 40
1.0
 40
2.0
 40
2.0
 40
2.0
 40
3.0
 40
3.0
 40
3.0
 40
4.0
 40
4.0
 40
4.0
 40
5.0
 40
5.0
 40
5.0
 40
6.0
 40
6.0
 40
6.0
 40
7.0
 40
7.0
 40
7.0
 40
8.0
 40
8.0
 40
8.0
 40
9.0
 40
9.0
 40
9.0
 40
9.0
 10
130.6771646638553
 20
70.58264211819914
 30
0.0
 10
130.6771646638553
 20
70.58264211819914
 30
0.0
 10
122.4566984822431
 20
70.58264211819914
 30
0.0
 10
122.4566984822431
 20
70.58264211819914
 30
0.0
 10
122.1732274194401
 20
70.58264211819914
 30
0.0
 10
122.4566984822431
 20
70.29916024208069
 30
0.0
 10
122.4566984822431
 20
70.58264211819914
 30
0.0
 10
122.4566984822431
 20
70.58264211819914
 30
0.0
 10
122.4566984822431
 20
78.51961561037751
 30
0.0
 10
122.4566984822431
 20
78.51961561037751
 30
0.0
 10
122.4566984822431
 20
78.80309748649597
 30
0.0
 10
122.1732274194401
 20
78.51961561037751
 30
0.0
 10
122.4566984822431
 20
78.51961561037751
 30
0.0
 10
122.4566984822431
 20
78.51961561037751
 30
0.0
 10
138.8976416587829
 20
78.51961561037751
 30
0.0
 10
138.8976416587829
 20
78.51961561037751
 30
0.0
 10
139.1811019082706
 20
78.51961561037751
 30
0.0
 10
138.8976416587829
 20
78.80309748649597
 30
0.0
 10
138.8976416587829
 20
78.51961561037751
 30
0.0
 10
138.8976416587829
 20
78.51961561037751
 30
0.0
 10
138.8976416587829
 20
70.58264211819914
 30
0.0
 10
138.8976416587829
 20
70.58264211819914
 30
0.0
 10
138.8976416587829
 20
70.29916024208069
 30
0.0
 10
139.1811019082706
 20
70.58264211819914
 30
0.0
 10
138.8976416587829
 20
70.58264211819914
 30
0.0
 10
138.8976416587829
 20
70.58264211819914
 30
0.0
 10
130.6771646638553
 20
70.58264211819914
 30
0.0
 10
130.6771646638553
 20
70.58264211819914
 30
0.0
  0
SPLINE
  5
84
330
7D
100
AcDbEntity
  8
svg38
 62
   250
420
  2299925
370
    20
100
AcDbSpline
210
0.0
220
0.0
230
1.0
 70
    11
 71
     3
 72
    32
 73
    28
 74
     0
 42
0.0000000001
 43
0.0000000001
 40
0.0
 40
0.0
 40
0.0
 40
0.0
 40
1.0
 40
1.0
 40
1.0
 40
2.0
 40
2.0
 40
2.0
 40
3.0
 40
3.0
 40
3.0
 40
4.0
 40
4.0
 40
4.0
 40
5.0
 40
5.0
 40
5.0
 40
6.0
 40
6.0
 40
6.0
 40
7.0
 40
7.0
 40
7.0
 40
8.0
 40
8.0
 40
8.0
 40
9.0
 40
9.0
 40
9.0
 40
9.0
 10
164.6929136415165
 20
70.58264211819914
 30
0.0
 10
164.6929136415165
 20
70.58264211819914
 30
0.0
 10
156.4724474599043
 20
70.58264211819914
 30
0.0
 10
156.4724474599043
 20
70.58264211819914
 30
0.0
 10
156.1889763971012
 20
70.58264211819914
 30
0.0
 10
156.4724474599043
 20
70.29916024208069
 30
0.0
 10
156.4724474599043
 20
70.58264211819914
 30
0.0
 10
156.4724474599043
 20
70.58264211819914
 30
0.0
 10
156.4724474599043
 20
78.51961561037751
 30
0.0
 10
156.4724474599043
 20
78.51961561037751
 30
0.0
 10
156.4724474599043
 20
78.80309748649597
 30
0.0
 10
156.1889763971012
 20
78.51961561037751
 30
0.0
 10
156.4724474599043
 20
78.51961561037751
 30
0.0
 10
156.4724474599043
 20
78.51961561037751
 30
0.0
 10
172.9133906364441
 20
78.51961561037751
 30
0.0
 10
172.9133906364441
 20
78.51961561037751
 30
0.0
 10
173.1968508859317
 20
78.51961561037751
 30
0.0
 10
172.9133906364441
 20
78.80309748649597
 30
0.0
 10
172.9133906364441
 20
78.51961561037751
 30
0.0
 10
172.9133906364441
 20
78.51961561037751
 30
0.0
 10
172.9133906364441
 20
70.58264211819914
 30
0.0
 10
172.9133906364441
 20
70.58264211819914
 30
0.0
 10
172.9133906364441
 20
70.29916024208069
 30
0.0
 10
173.1968508859317
 20
70.58264211819914
 30
0.0
 10
172.9133906364441
 20
70.58264211819914
 30
0.0
 10
172.9133906364441
 20
70.58264211819914
 30
0.0
 10
164.6929136415165
 20
70.58264211819914
 30
0.0
 10
164.6929136415165
 20
70.58264211819914
 30
0.0
  0
SPLINE
  5
85
330
7D
100
AcDbEntity
  8
svg38
 62
   250
420
  2299925
370
    20
100
AcDbSpline
210
0.0
220
0.0
230
1.0
 70
    11
 71
     3
 72
    32
 73
    28
 74
     0
 42
0.0000000001
 43
0.0000000001
 40
0.0
 40
0.0
 40
0.0
 40
0.0
 40
1.0
 40
1.0
 40
1.0
 40
2.0
 40
2.0
 40
2.0
 40
3.0
 40
3.0
 40
3.0
 40
4.0
 40
4.0
 40
4.0
 40
5.0
 40
5.0
 40
5.0
 40
6.0
 40
6.0
 40
6.0
 40
7.0
 40
7.0
 40
7.0
 40
8.0
 40
8.0
 40
8.0
 40
9.0
 40
9.0
 40
9.0
 40
9.0
 10
198.7086626191776
 20
70.58264211819914
 30
0.0
 10
198.7086626191776
 20
70.58264211819914
 30
0.0
 10
190.48818562425
 20
70.58264211819914
 30
0.0
 10
190.48818562425
 20
70.58264211819914
 30
0.0
 10
190.2047253747623
 20
70.58264211819914
 30
0.0
 10
190.48818562425
 20
70.29916024208069
 30
0.0
 10
190.48818562425
 20
70.58264211819914
 30
0.0
 10
190.48818562425
 20
70.58264211819914
 30
0.0
 10
190.48818562425
 20
78.51961561037751
 30
0.0
 10
190.48818562425
 20
78.51961561037751
 30
0.0
 10
190.48818562425
 20
78.80309748649597
 30
0.0
 10
190.2047253747623
 20
78.51961561037751
 30
0.0
 10
190.48818562425
 20
78.51961561037751
 30
0.0
 10
190.48818562425
 20
78.51961561037751
 30
0.0
 10
206.9291396141052
 20
78.51961561037751
 30
0.0
 10
206.9291396141052
 20
78.51961561037751
 30
0.0
 10
207.2125998635929
 20
78.51961561037751
 30
0.0
 10
206.9291396141052
 20
78.80309748649597
 30
0.0
 10
206.9291396141052
 20
78.51961561037751
 30
0.0
 10
206.9291396141052
 20
78.51961561037751
 30
0.0
 10
206.9291396141052
 20
70.58264211819914
 30
0.0
 10
206.9291396141052
 20
70.58264211819914
 30
0.0
 10
206.9291396141052
 20
70.29916024208069
 30
0.0
 10
207.2125998635929
 20
70.58264211819914
 30
0.0
 10
206.9291396141052
 20
70.58264211819914
 30
0.0
 10
206.9291396141052
 20
70.58264211819914
 30
0.0
 10
198.7086626191776
 20
70.58264211819914
 30
0.0
 10
198.7086626191776
 20
70.58264211819914
 30
0.0
  0
SPLINE
  5
86
330
7D
100
AcDbEntity
  8
svg38
 62
   250
420
  2299925
370
    20
100
AcDbSpline
210
0.0
220
0.0
230
1.0
 70
    11
 71
     3
 72
    32
 73
    28
 74
     0
 42
0.0000000001
 43
0.0000000001
 40
0.0
 40
0.0
 40
0.0
 40
0.0
 40
1.0
 40
1.0
 40
1.0
 40
2.0
 40
2.0
 40
2.0
 40
3.0
 40
3.0
 40
3.0
 40
4.0
 40
4.0
 40
4.0
 40
5.0
 40
5.0
 40
5.0
 40
6.0
 40
6.0
 40
6.0
 40
7.0
 40
7.0
 40
7.0
 40
8.0
 40
8.0
 40
8.0
 40
9.0
 40
9.0
 40
9.0
 40
9.0
 10
232.7244115968388
 20
70.58264211819914
 30
0.0
 10
232.7244115968388
 20
70.58264211819914
 30
0.0
 10
224.5039346019112
 20
70.58264211819914
 30
0.0
 10
224.5039346019112
 20
70.58264211819914
 30
0.0
 10
224.2204743524235
 20
70.58264211819914
 30
0.0
 10
224.5039346019112
 20
70.29916024208069
 30
0.0
 10
224.5039346019112
 20
70.58264211819914
 30
0.0
 10
224.5039346019112
 20
70.58264211819914
 30
0.0
 10
224.5039346019112
 20
78.51961561037751
 30
0.0
 10
224.5039346019112
 20
78.51961561037751
 30
0.0
 10
224.5039346019112
 20
78.80309748649597
 30
0.0
 10
224.2204743524235
 20
78.51961561037751
 30
0.0
 10
224.5039346019112
 20
78.51961561037751
 30
0.0
 10
224.5039346019112
 20
78.51961561037751
 30
0.0
 10
240.9448885917663
 20
78.51961561037751
 30
0.0
 10
240.9448885917663
 20
78.51961561037751
 30
0.0
 10
241.2283488412541
 20
78.51961561037751
 30
0.0
 10
240.9448885917663
 20
78.80309748649597
 30
0.0
 10
240.9448885917663
 20
78.51961561037751
 30
0.0
 10
240.9448885917663
 20
78.51961561037751
 30
0.0
 10
240.9448885917663
 20
70.58264211819914
 30
0.0
 10
240.9448885917663
 20
70.58264211819914
 30
0.0
 10
240.9448885917663
 20
70.29916024208069
 30
0.0
 10
241.2283488412541
 20
70.58264211819914
 30
0.0
 10
240.9448885917663
 20
70.58264211819914
 30
0.0
 10
240.9448885917663
 20
70.58264211819914
 30
0.0
 10
232.7244115968388
 20
70.58264211819914
 30
0.0
 10
232.7244115968388
 20
70.58264211819914
 30
0.0
  0
SPLINE
  5
87
330
7D
100
AcDbEntity
  8
svg38
 62
   250
420
  2299925
370
    20
100
AcDbSpline
210
0.0
220
0.0
230
1.0
 70
    11
 71
     3
 72
    32
 73
    28
 74
     0
 42
0.0000000001
 43
0.0000000001
 40
0.0
 40
0.0
 40
0.0
 40
0.0
 40
1.0
 40
1.0
 40
1.0
 40
2.0
 40
2.0
 40
2.0
 40
3.0
 40
3.0
 40
3.0
 40
4.0
 40
4.0
 40
4.0
 40
5.0
 40
5.0
 40
5.0
 40
6.0
 40
6.0
 40
6.0
 40
7.0
 40
7.0
 40
7.0
 40
8.0
 40
8.0
 40
8.0
 40
9.0
 40
9.0
 40
9.0
 40
9.0
 10
266.7401605744999
 20
70.58264211819914
 30
0.0
 10
266.7401605744999
 20
70.58264211819914
 30
0.0
 10
258.5196835795723
 20
70.58264211819914
 30
0.0
 10
258.5196835795723
 20
70.58264211819914
 30
0.0
 10
258.2362233300846
 20
70.58264211819914
 30
0.0
 10
258.5196835795723
 20
70.29916024208069
 30
0.0
 10
258.5196835795723
 20
70.58264211819914
 30
0.0
 10
258.5196835795723
 20
70.58264211819914
 30
0.0
 10
258.5196835795723
 20
78.51961561037751
 30
0.0
 10
258.5196835795723
 20
78.51961561037751
 30
0.0
 10
258.5196835795723
 20
78.80309748649597
 30
0.0
 10
258.2362233300846
 20
78.51961561037751
 30
0.0
 10
258.5196835795723
 20
78.51961561037751
 30
0.0
 10
258.5196835795723
 20
78.51961561037751
 30
0.0
 10
274.9606375694275
 20
78.51961561037751
 30
0.0
 10
274.9606375694275
 20
78.51961561037751
 30
0.0
 10
275.2440978189152
 20
78.51961561037751
 30
0.0
 10
274.9606375694275
 20
78.80309748649597
 30
0.0
 10
274.9606375694275
 20
78.51961561037751
 30
0.0
 10
274.9606375694275
 20
78.51961561037751
 30
0.0
 10
274.9606375694275
 20
70.58264211819914
 30
0.0
 10
274.9606375694275
 20
70.58264211819914
 30
0.0
 10
274.9606375694275
 20
70.29916024208069
 30
0.0
 10
275.2440978189152
 20
70.58264211819914
 30
0.0
 10
274.9606375694275
 20
70.58264211819914
 30
0.0
 10
274.9606375694275
 20
70.58264211819914
 30
0.0
 10
266.7401605744999
 20
70.58264211819914
 30
0.0
 10
266.7401605744999
 20
70.58264211819914
 30
0.0
  0
SPLINE
  5
88
330
7D
100
AcDbEntity
  8
svg38
 62
   250
420
  2299925
370
    20
100
AcDbSpline
210
0.0
220
0.0
230
1.0
 70
    11
 71
     3
 72
    32
 73
    28
 74
     0
 42
0.0000000001
 43
0.0000000001
 40
0.0
 40
0.0
 40
0.0
 40
0.0
 40
1.0
 40
1.0
 40
1.0
 40
2.0
 40
2.0
 40
2.0
 40
3.0
 40
3.0
 40
3.0
 40
4.0
 40
4.0
 40
4.0
 40
5.0
 40
5.0
 40
5.0
 40
6.0
 40
6.0
 40
6.0
 40
7.0
 40
7.0
 40
7.0
 40
8.0
 40
8.0
 40
8.0
 40
9.0
 40
9.0
 40
9.0
 40
9.0
 10
300.755909552161
 20
70.58264211819914
 30
0.0
 10
300.755909552161
 20
70.58264211819914
 30
0.0
 10
292.5354325572334
 20
70.58264211819914
 30
0.0
 10
292.5354325572334
 20
70.58264211819914
 30
0.0
 10
292.2519723077457
 20
70.58264211819914
 30
0.0
 10
292.5354325572334
 20
70.29916024208069
 30
0.0
 10
292.5354325572334
 20
70.58264211819914
 30
0.0
 10
292.5354325572334
 20
70.58264211819914
 30
0.0
 10
292.5354325572334
 20
78.51961561037751
 30
0.0
 10
292.5354325572334
 20
78.51961561037751
 30
0.0
 10
292.5354325572334
 20
78.80309748649597
 30
0.0
 10
292.2519723077457
 20
78.51961561037751
 30
0.0
 10
292.5354325572334
 20
78.51961561037751
 30
0.0
 10
292.5354325572334
 20
78.51961561037751
 30
0.0
 10
308.9763865470886
 20
78.51961561037751
 30
0.0
 10
308.9763865470886
 20
78.51961561037751
 30
0.0
 10
309.2598467965763
 20
78.51961561037751
 30
0.0
 10
308.9763865470886
 20
78.80309748649597
 30
0.0
 10
308.9763865470886
 20
78.51961561037751
 30
0.0
 10
308.9763865470886
 20
78.51961561037751
 30
0.0
 10
308.9763865470886
 20
70.58264211819914
 30
0.0
 10
308.9763865470886
 20
70.58264211819914
 30
0.0
 10
308.9763865470886
 20
70.29916024208069
 30
0.0
 10
309.2598467965763
 20
70.58264211819914
 30
0.0
 10
308.9763865470886
 20
70.58264211819914
 30
0.0
 10
308.9763865470886
 20
70.58264211819914
 30
0.0
 10
300.755909552161
 20
70.58264211819914
 30
0.0
 10
300.755909552161
 20
70.58264211819914
 30
0.0
  0
SPLINE
  5
89
330
7D
100
AcDbEntity
  8
svg38
 62
   250
420
  2299925
370
    20
100
AcDbSpline
210
0.0
220
0.0
230
1.0
 70
    11
 71
     3
 72
   377
 73
   373
 74
     0
 42
0.0000000001
 43
0.0000000001
 40
0.0
 40
0.0
 40
0.0
 40
0.0
 40
1.0
 40
1.0
 40
1.0
 40
2.0
 40
2.0
 40
2.0
 40
3.0
 40
3.0
 40
3.0
 40
4.0
 40
4.0
 40
4.0
 40
5.0
 40
5.0
 40
5.0
 40
6.0
 40
6.0
 40
6.0
 40
7.0
 40
7.0
 40
7.0
 40
8.0
 40
8.0
 40
8.0
 40
9.0
 40
9.0
 40
9.0
 40
10.0
 40
10.0
 40
10.0
 40
11.0
 40
11.0
 40
11.0
 40
12.0
 40
12.0
 40
12.0
 40
13.0
 40
13.0
 40
13.0
 40
14.0
 40
14.0
 40
14.0
 40
15.0
 40
15.0
 40
15.0
 40
16.0
 40
16.0
 40
16.0
 40
17.0
 40
17.0
 40
17.0
 40
18.0
 40
18.0
 40
18.0
 40
19.0
 40
19.0
 40
19.0
 40
20.0
 40
20.0
 40
20.0
 40
21.0
 40
21.0
 40
21.0
 40
22.0
 40
22.0
 40
22.0
 40
23.0
 40
23.0
 40
23.0
 40
24.0
 40
24.0
 40
24.0
 40
25.0
 40
25.0
 40
25.0
 40
26.0
 40
26.0
 40
26.0
 40
27.0
 40
27.0
 40
27.0
 40
28.0
 40
28.0
 40
28.0
 40
29.0
 40
29.0
 40
29.0
 40
30.0
 40
30.0
 40
30.0
 40
31.0
 40
31.0
 40
31.0
 40
32.0
 40
32.0
 40
32.0
 40
33.0
 40
33.0
 40
33.0
 40
34.0
 40
34.0
 40
34.0
 40
35.0
 40
35.0
 40
35.0
 40
36.0
 40
36.0
 40
36.0
 40
37.0
 40
37.0
 40
37.0
 40
38.0
 40
38.0
 40
38.0
 40
39.0
 40
39.0
 40
39.0
 40
40.0
 40
40.0
 40
40.0
 40
41.0
 40
41.0
 40
41.0
 40
42.0
 40
42.0
 40
42.0
 40
43.0
 40
43.0
 40
43.0
 40
44.0
 40
44.0
 40
44.0
 40
45.0
 40
45.0
 40
45.0
 40
46.0
 40
46.0
 40
46.0
 40
47.0
 40
47.0
 40
47.0
 40
48.0
 40
48.0
 40
48.0
 40
49.0
 40
49.0
 40
49.0
 40
50.0
 40
50.0
 40
50.0
 40
51.0
 40
51.0
 40
51.0
 40
52.0
 40
52.0
 40
52.0
 40
53.0
 40
53.0
 40
53.0
 40
54.0
 40
54.0
 40
54.0
 40
55.0
 40
55.0
 40
55.0
 40
56.0
 40
56.0
 40
56.0
 40
57.0
 40
57.0
 40
57.0
 40
58.0
 40
58.0
 40
58.0
 40
59.0
 40
59.0
 40
59.0
 40
60.0
 40
60.0
 40
60.0
 40
61.0
 40
61.0
 40
61.0
 40
62.0
 40
62.0
 40
62.0
 40
63.0
 40
63.0
 40
63.0
 40
64.0
 40
64.0
 40
64.0
 40
65.0
 40
65.0
 40
65.0
 40
66.0
 40
66.0
 40
66.0
 40
67.0
 40
67.0
 40
67.0
 40
68.0
 40
68.0
 40
68.0
 40
69.0
 40
69.0
 40
69.0
 40
70.0
 40
70.0
 40
70.0
 40
71.0
 40
71.0
 40
71.0
 40
72.0
 40
72.0
 40
72.0
 40
73.0
 40
73.0
 40
73.0
 40
74.0
 40
74.0
 40
74.0
 40
75.0
 40
75.0
 40
75.0
 40
76.0
 40
76.0
 40
76.0
 40
77.0
 40
77.0
 40
77.0
 40
78.0
 40
78.0
 40
78.0
 40
79.0
 40
79.0
 40
79.0
 40
80.0
 40
80.0
 40
80.0
 40
81.0
 40
81.0
 40
81.0
 40
82.0
 40
82.0
 40
82.0
 40
83.0
 40
83.0
 40
83.0
 40
84.0
 40
84.0
 40
84.0
 40
85.0
 40
85.0
 40
85.0
 40
86.0
 40
86.0
 40
86.0
 40
87.0
 40
87.0
 40
87.0
 40
88.0
 40
88.0
 40
88.0
 40
89.0
 40
89.0
 40
89.0
 40
90.0
 40
90.0
 40
90.0
 40
91.0
 40
91.0
 40
91.0
 40
92.0
 40
92.0
 40
92.0
 40
93.0
 40
93.0
 40
93.0
 40
94.0
 40
94.0
 40
94.0
 40
95.0
 40
95.0
 40
95.0
 40
96.0
 40
96.0
 40
96.0
 40
97.0
 40
97.0
 40
97.0
 40
98.0
 40
98.0
 40
98.0
 40
99.0
 40
99.0
 40
99.0
 40
100.0
 40
100.0
 40
100.0
 40
101.0
 40
101.0
 40
101.0
 40
102.0
 40
102.0
 40
102.0
 40
103.0
 40
103.0
 40
103.0
 40
104.0
 40
104.0
 40
104.0
 40
105.0
 40
105.0
 40
105.0
 40
106.0
 40
106.0
 40
106.0
 40
107.0
 40
107.0
 40
107.0
 40
108.0
 40
108.0
 40
108.0
 40
109.0
 40
109.0
 40
109.0
 40
110.0
 40
110.0
 40
110.0
 40
111.0
 40
111.0
 40
111.0
 40
112.0
 40
112.0
 40
112.0
 40
113.0
 40
113.0
 40
113.0
 40
114.0
 40
114.0
 40
114.0
 40
115.0
 40
115.0
 40
115.0
 40
116.0
 40
116.0
 40
116.0
 40
117.0
 40
117.0
 40
117.0
 40
118.0
 40
118.0
 40
118.0
 40
119.0
 40
119.0
 40
119.0
 40
120.0
 40
120.0
 40
120.0
 40
121.0
 40
121.0
 40
121.0
 40
122.0
 40
122.0
 40
122.0
 40
123.0
 40
123.0
 40
123.0
 40
124.0
 40
124.0
 40
124.0
 40
124.0
 10
37.13386038194494
 20
61.51174112154695
 30
0.0
 10
37.13386038194494
 20
61.51174112154695
 30
0.0
 10
326.2677212854069
 20
61.51174112154695
 30
0.0
 10
326.2677212854069
 20
61.51174112154695
 30
0.0
 10
326.2677212854069
 20
61.51174112154695
 30
0.0
 10
334.7716585298222
 20
61.51174112154695
 30
0.0
 10
334.7716585298222
 20
61.51174112154695
 30
0.0
 10
334.927564911035
 20
61.51174112154695
 30
0.0
 10
335.0551187793099
 20
61.63933824308333
 30
0.0
 10
335.0551187793099
 20
61.7952229976654
 30
0.0
 10
335.0551187793099
 20
61.7952229976654
 30
0.0
 10
335.0551187793099
 20
87.30703473091125
 30
0.0
 10
335.0551187793099
 20
87.30703473091125
 30
0.0
 10
335.0551187793099
 20
87.46291948549332
 30
0.0
 10
334.927564911035
 20
87.5905166070297
 30
0.0
 10
334.7716585298222
 20
87.5905166070297
 30
0.0
 10
334.7716585298222
 20
87.5905166070297
 30
0.0
 10
326.5511815348946
 20
87.5905166070297
 30
0.0
 10
326.5511815348946
 20
87.5905166070297
 30
0.0
 10
326.2677212854069
 20
87.5905166070297
 30
0.0
 10
326.5511815348946
 20
87.30703473091125
 30
0.0
 10
326.5511815348946
 20
87.5905166070297
 30
0.0
 10
326.5511815348946
 20
87.5905166070297
 30
0.0
 10
326.5511815348946
 20
104.0314273436233
 30
0.0
 10
326.5511815348946
 20
104.0314273436233
 30
0.0
 10
326.5511815348946
 20
104.3149092197418
 30
0.0
 10
326.2677212854069
 20
104.0314273436233
 30
0.0
 10
326.5511815348946
 20
104.0314273436233
 30
0.0
 10
326.5511815348946
 20
104.0314273436233
 30
0.0
 10
334.7716585298222
 20
104.0314273436233
 30
0.0
 10
334.7716585298222
 20
104.0314273436233
 30
0.0
 10
334.927564911035
 20
104.0314273436233
 30
0.0
 10
335.0551187793099
 20
104.1590244651597
 30
0.0
 10
335.0551187793099
 20
104.3149092197418
 30
0.0
 10
335.0551187793099
 20
104.3149092197418
 30
0.0
 10
335.0551187793099
 20
121.3227837085724
 30
0.0
 10
335.0551187793099
 20
121.3227837085724
 30
0.0
 10
335.0551187793099
 20
121.4786684631544
 30
0.0
 10
334.927564911035
 20
121.6062655846908
 30
0.0
 10
334.7716585298222
 20
121.6062655846908
 30
0.0
 10
334.7716585298222
 20
121.6062655846908
 30
0.0
 10
326.5511815348946
 20
121.6062655846908
 30
0.0
 10
326.5511815348946
 20
121.6062655846908
 30
0.0
 10
326.2677212854069
 20
121.6062655846908
 30
0.0
 10
326.5511815348946
 20
121.3227837085724
 30
0.0
 10
326.5511815348946
 20
121.6062655846908
 30
0.0
 10
326.5511815348946
 20
121.6062655846908
 30
0.0
 10
326.5511815348946
 20
138.0471763212845
 30
0.0
 10
326.5511815348946
 20
138.0471763212845
 30
0.0
 10
326.5511815348946
 20
138.3306581974029
 30
0.0
 10
326.2677212854069
 20
138.0471763212845
 30
0.0
 10
326.5511815348946
 20
138.0471763212845
 30
0.0
 10
326.5511815348946
 20
138.0471763212845
 30
0.0
 10
334.7716585298222
 20
138.0471763212845
 30
0.0
 10
334.7716585298222
 20
138.0471763212845
 30
0.0
 10
334.927564911035
 20
138.0471763212845
 30
0.0
 10
335.0551187793099
 20
138.1747734428208
 30
0.0
 10
335.0551187793099
 20
138.3306581974029
 30
0.0
 10
335.0551187793099
 20
138.3306581974029
 30
0.0
 10
335.0551187793099
 20
155.3385326862335
 30
0.0
 10
335.0551187793099
 20
155.3385326862335
 30
0.0
 10
335.0551187793099
 20
155.4944174408156
 30
0.0
 10
334.927564911035
 20
155.622014562352
 30
0.0
 10
334.7716585298222
 20
155.622014562352
 30
0.0
 10
334.7716585298222
 20
155.622014562352
 30
0.0
 10
326.5511815348946
 20
155.622014562352
 30
0.0
 10
326.5511815348946
 20
155.622014562352
 30
0.0
 10
326.2677212854069
 20
155.622014562352
 30
0.0
 10
326.5511815348946
 20
155.3385326862335
 30
0.0
 10
326.5511815348946
 20
155.622014562352
 30
0.0
 10
326.5511815348946
 20
155.622014562352
 30
0.0
 10
326.5511815348946
 20
172.0629252989456
 30
0.0
 10
326.5511815348946
 20
172.0629252989456
 30
0.0
 10
326.5511815348946
 20
172.3464071750641
 30
0.0
 10
326.2677212854069
 20
172.0629252989456
 30
0.0
 10
326.5511815348946
 20
172.0629252989456
 30
0.0
 10
326.5511815348946
 20
172.0629252989456
 30
0.0
 10
334.7716585298222
 20
172.0629252989456
 30
0.0
 10
334.7716585298222
 20
172.0629252989456
 30
0.0
 10
334.927564911035
 20
172.0629252989456
 30
0.0
 10
335.0551187793099
 20
172.190522420482
 30
0.0
 10
335.0551187793099
 20
172.3464071750641
 30
0.0
 10
335.0551187793099
 20
172.3464071750641
 30
0.0
 10
335.0551187793099
 20
189.3542816638946
 30
0.0
 10
335.0551187793099
 20
189.3542816638946
 30
0.0
 10
335.0551187793099
 20
189.5101664184767
 30
0.0
 10
334.927564911035
 20
189.6377635400131
 30
0.0
 10
334.7716585298222
 20
189.6377635400131
 30
0.0
 10
334.7716585298222
 20
189.6377635400131
 30
0.0
 10
326.5511815348946
 20
189.6377635400131
 30
0.0
 10
326.5511815348946
 20
189.6377635400131
 30
0.0
 10
326.2677212854069
 20
189.6377635400131
 30
0.0
 10
326.5511815348946
 20
189.3542816638946
 30
0.0
 10
326.5511815348946
 20
189.6377635400131
 30
0.0
 10
326.5511815348946
 20
189.6377635400131
 30
0.0
 10
326.5511815348946
 20
206.0786742766067
 30
0.0
 10
326.5511815348946
 20
206.0786742766067
 30
0.0
 10
326.5511815348946
 20
206.3621561527252
 30
0.0
 10
326.2677212854069
 20
206.0786742766067
 30
0.0
 10
326.5511815348946
 20
206.0786742766067
 30
0.0
 10
326.5511815348946
 20
206.0786742766067
 30
0.0
 10
334.7716585298222
 20
206.0786742766067
 30
0.0
 10
334.7716585298222
 20
206.0786742766067
 30
0.0
 10
334.927564911035
 20
206.0786742766067
 30
0.0
 10
335.0551187793099
 20
206.2062713981431
 30
0.0
 10
335.0551187793099
 20
206.3621561527252
 30
0.0
 10
335.0551187793099
 20
206.3621561527252
 30
0.0
 10
335.0551187793099
 20
223.3700306415558
 30
0.0
 10
335.0551187793099
 20
223.3700306415558
 30
0.0
 10
335.0551187793099
 20
223.5259153961379
 30
0.0
 10
334.927564911035
 20
223.6535125176743
 30
0.0
 10
334.7716585298222
 20
223.6535125176743
 30
0.0
 10
334.7716585298222
 20
223.6535125176743
 30
0.0
 10
326.5511815348946
 20
223.6535125176743
 30
0.0
 10
326.5511815348946
 20
223.6535125176743
 30
0.0
 10
326.2677212854069
 20
223.6535125176743
 30
0.0
 10
326.5511815348946
 20
223.3700306415558
 30
0.0
 10
326.5511815348946
 20
223.6535125176743
 30
0.0
 10
326.5511815348946
 20
223.6535125176743
 30
0.0
 10
326.5511815348946
 20
240.0944232542679
 30
0.0
 10
326.5511815348946
 20
240.0944232542679
 30
0.0
 10
326.5511815348946
 20
240.3779051303863
 30
0.0
 10
326.2677212854069
 20
240.0944232542679
 30
0.0
 10
326.5511815348946
 20
240.0944232542679
 30
0.0
 10
326.5511815348946
 20
240.0944232542679
 30
0.0
 10
334.7716585298222
 20
240.0944232542679
 30
0.0
 10
334.7716585298222
 20
240.0944232542679
 30
0.0
 10
334.927564911035
 20
240.0944232542679
 30
0.0
 10
335.0551187793099
 20
240.2220203758043
 30
0.0
 10
335.0551187793099
 20
240.3779051303863
 30
0.0
 10
335.0551187793099
 20
240.3779051303863
 30
0.0
 10
335.0551187793099
 20
257.3857796192169
 30
0.0
 10
335.0551187793099
 20
257.3857796192169
 30
0.0
 10
335.0551187793099
 20
257.541664373799
 30
0.0
 10
334.927564911035
 20
257.6692614953354
 30
0.0
 10
334.7716585298222
 20
257.6692614953354
 30
0.0
 10
334.7716585298222
 20
257.6692614953354
 30
0.0
 10
326.5511815348946
 20
257.6692614953354
 30
0.0
 10
326.5511815348946
 20
257.6692614953354
 30
0.0
 10
326.2677212854069
 20
257.6692614953354
 30
0.0
 10
326.5511815348946
 20
257.3857796192169
 30
0.0
 10
326.5511815348946
 20
257.6692614953354
 30
0.0
 10
326.5511815348946
 20
257.6692614953354
 30
0.0
 10
326.5511815348946
 20
274.110172231929
 30
0.0
 10
326.5511815348946
 20
274.110172231929
 30
0.0
 10
326.5511815348946
 20
274.3936541080475
 30
0.0
 10
326.2677212854069
 20
274.110172231929
 30
0.0
 10
326.5511815348946
 20
274.110172231929
 30
0.0
 10
326.5511815348946
 20
274.110172231929
 30
0.0
 10
334.7716585298222
 20
274.110172231929
 30
0.0
 10
334.7716585298222
 20
274.110172231929
 30
0.0
 10
334.927564911035
 20
274.110172231929
 30
0.0
 10
335.0551187793099
 20
274.2377693534654
 30
0.0
 10
335.0551187793099
 20
274.3936541080475
 30
0.0
 10
335.0551187793099
 20
274.3936541080475
 30
0.0
 10
335.0551187793099
 20
291.4015285968781
 30
0.0
 10
335.0551187793099
 20
291.4015285968781
 30
0.0
 10
335.0551187793099
 20
291.5574133514601
 30
0.0
 10
334.927564911035
 20
291.6850104729965
 30
0.0
 10
334.7716585298222
 20
291.6850104729965
 30
0.0
 10
334.7716585298222
 20
291.6850104729965
 30
0.0
 10
326.5511815348946
 20
291.6850104729965
 30
0.0
 10
326.5511815348946
 20
291.6850104729965
 30
0.0
 10
326.2677212854069
 20
291.6850104729965
 30
0.0
 10
326.5511815348946
 20
291.4015285968781
 30
0.0
 10
326.5511815348946
 20
291.6850104729965
 30
0.0
 10
326.5511815348946
 20
291.6850104729965
 30
0.0
 10
326.5511815348946
 20
308.1259212095901
 30
0.0
 10
326.5511815348946
 20
308.1259212095901
 30
0.0
 10
326.5511815348946
 20
308.4094030857086
 30
0.0
 10
326.2677212854069
 20
308.1259212095901
 30
0.0
 10
326.5511815348946
 20
308.1259212095901
 30
0.0
 10
326.5511815348946
 20
308.1259212095901
 30
0.0
 10
334.7716585298222
 20
308.1259212095901
 30
0.0
 10
334.7716585298222
 20
308.1259212095901
 30
0.0
 10
334.927564911035
 20
308.1259212095901
 30
0.0
 10
335.0551187793099
 20
308.2535183311265
 30
0.0
 10
335.0551187793099
 20
308.4094030857086
 30
0.0
 10
335.0551187793099
 20
308.4094030857086
 30
0.0
 10
335.0551187793099
 20
333.9212148189545
 30
0.0
 10
335.0551187793099
 20
333.9212148189545
 30
0.0
 10
335.0551187793099
 20
334.0770995735365
 30
0.0
 10
334.927564911035
 20
334.2046966950729
 30
0.0
 10
334.7716585298222
 20
334.2046966950729
 30
0.0
 10
334.7716585298222
 20
334.2046966950729
 30
0.0
 10
326.2677212854069
 20
334.2046966950729
 30
0.0
 10
326.2677212854069
 20
334.2046966950729
 30
0.0
 10
326.2677212854069
 20
334.2046966950729
 30
0.0
 10
37.13386038194494
 20
334.2046966950729
 30
0.0
 10
37.13386038194494
 20
334.2046966950729
 30
0.0
 10
37.13386038194494
 20
334.2046966950729
 30
0.0
 10
28.62992313752966
 20
334.2046966950729
 30
0.0
 10
28.62992313752966
 20
334.2046966950729
 30
0.0
 10
28.47401675631682
 20
334.2046966950729
 30
0.0
 10
28.34645748138428
 20
334.0770995735365
 30
0.0
 10
28.34645748138428
 20
333.9212148189545
 30
0.0
 10
28.34645748138428
 20
333.9212148189545
 30
0.0
 10
28.34645748138428
 20
308.4094030857086
 30
0.0
 10
28.34645748138428
 20
308.4094030857086
 30
0.0
 10
28.34645748138428
 20
308.2535183311265
 30
0.0
 10
28.47401675631682
 20
308.1259212095901
 30
0.0
 10
28.62992313752966
 20
308.1259212095901
 30
0.0
 10
28.62992313752966
 20
308.1259212095901
 30
0.0
 10
36.85039472579956
 20
308.1259212095901
 30
0.0
 10
36.85039472579956
 20
308.1259212095901
 30
0.0
 10
37.13386038194494
 20
308.1259212095901
 30
0.0
 10
36.85039472579956
 20
308.4094030857086
 30
0.0
 10
36.85039472579956
 20
308.1259212095901
 30
0.0
 10
36.85039472579956
 20
308.1259212095901
 30
0.0
 10
36.85039472579956
 20
291.6850104729965
 30
0.0
 10
36.85039472579956
 20
291.6850104729965
 30
0.0
 10
36.85039472579956
 20
291.4015285968781
 30
0.0
 10
37.13386038194494
 20
291.6850104729965
 30
0.0
 10
36.85039472579956
 20
291.6850104729965
 30
0.0
 10
36.85039472579956
 20
291.6850104729965
 30
0.0
 10
28.62992313752966
 20
291.6850104729965
 30
0.0
 10
28.62992313752966
 20
291.6850104729965
 30
0.0
 10
28.47401675631682
 20
291.6850104729965
 30
0.0
 10
28.34645748138428
 20
291.5574133514601
 30
0.0
 10
28.34645748138428
 20
291.4015285968781
 30
0.0
 10
28.34645748138428
 20
291.4015285968781
 30
0.0
 10
28.34645748138428
 20
274.3936541080475
 30
0.0
 10
28.34645748138428
 20
274.3936541080475
 30
0.0
 10
28.34645748138428
 20
274.2377693534654
 30
0.0
 10
28.47401675631682
 20
274.110172231929
 30
0.0
 10
28.62992313752966
 20
274.110172231929
 30
0.0
 10
28.62992313752966
 20
274.110172231929
 30
0.0
 10
36.85039472579956
 20
274.110172231929
 30
0.0
 10
36.85039472579956
 20
274.110172231929
 30
0.0
 10
37.13386038194494
 20
274.110172231929
 30
0.0
 10
36.85039472579956
 20
274.3936541080475
 30
0.0
 10
36.85039472579956
 20
274.110172231929
 30
0.0
 10
36.85039472579956
 20
274.110172231929
 30
0.0
 10
36.85039472579956
 20
257.6692614953354
 30
0.0
 10
36.85039472579956
 20
257.6692614953354
 30
0.0
 10
36.85039472579956
 20
257.3857796192169
 30
0.0
 10
37.13386038194494
 20
257.6692614953354
 30
0.0
 10
36.85039472579956
 20
257.6692614953354
 30
0.0
 10
36.85039472579956
 20
257.6692614953354
 30
0.0
 10
28.62992313752966
 20
257.6692614953354
 30
0.0
 10
28.62992313752966
 20
257.6692614953354
 30
0.0
 10
28.47401675631682
 20
257.6692614953354
 30
0.0
 10
28.34645748138428
 20
257.541664373799
 30
0.0
 10
28.34645748138428
 20
257.3857796192169
 30
0.0
 10
28.34645748138428
 20
257.3857796192169
 30
0.0
 10
28.34645748138428
 20
240.3779051303863
 30
0.0
 10
28.34645748138428
 20
240.3779051303863
 30
0.0
 10
28.34645748138428
 20
240.2220203758043
 30
0.0
 10
28.47401675631682
 20
240.0944232542679
 30
0.0
 10
28.62992313752966
 20
240.0944232542679
 30
0.0
 10
28.62992313752966
 20
240.0944232542679
 30
0.0
 10
36.85039472579956
 20
240.0944232542679
 30
0.0
 10
36.85039472579956
 20
240.0944232542679
 30
0.0
 10
37.13386038194494
 20
240.0944232542679
 30
0.0
 10
36.85039472579956
 20
240.3779051303863
 30
0.0
 10
36.85039472579956
 20
240.0944232542679
 30
0.0
 10
36.85039472579956
 20
240.0944232542679
 30
0.0
 10
36.85039472579956
 20
223.6535125176743
 30
0.0
 10
36.85039472579956
 20
223.6535125176743
 30
0.0
 10
36.85039472579956
 20
223.3700306415558
 30
0.0
 10
37.13386038194494
 20
223.6535125176743
 30
0.0
 10
36.85039472579956
 20
223.6535125176743
 30
0.0
 10
36.85039472579956
 20
223.6535125176743
 30
0.0
 10
28.62992313752966
 20
223.6535125176743
 30
0.0
 10
28.62992313752966
 20
223.6535125176743
 30
0.0
 10
28.47401675631682
 20
223.6535125176743
 30
0.0
 10
28.34645748138428
 20
223.5259153961379
 30
0.0
 10
28.34645748138428
 20
223.3700306415558
 30
0.0
 10
28.34645748138428
 20
223.3700306415558
 30
0.0
 10
28.34645748138428
 20
206.3621561527252
 30
0.0
 10
28.34645748138428
 20
206.3621561527252
 30
0.0
 10
28.34645748138428
 20
206.2062713981431
 30
0.0
 10
28.47401675631682
 20
206.0786742766067
 30
0.0
 10
28.62992313752966
 20
206.0786742766067
 30
0.0
 10
28.62992313752966
 20
206.0786742766067
 30
0.0
 10
36.85039472579956
 20
206.0786742766067
 30
0.0
 10
36.85039472579956
 20
206.0786742766067
 30
0.0
 10
37.13386038194494
 20
206.0786742766067
 30
0.0
 10
36.85039472579956
 20
206.3621561527252
 30
0.0
 10
36.85039472579956
 20
206.0786742766067
 30
0.0
 10
36.85039472579956
 20
206.0786742766067
 30
0.0
 10
36.85039472579956
 20
189.6377635400131
 30
0.0
 10
36.85039472579956
 20
189.6377635400131
 30
0.0
 10
36.85039472579956
 20
189.3542816638946
 30
0.0
 10
37.13386038194494
 20
189.6377635400131
 30
0.0
 10
36.85039472579956
 20
189.6377635400131
 30
0.0
 10
36.85039472579956
 20
189.6377635400131
 30
0.0
 10
28.62992313752966
 20
189.6377635400131
 30
0.0
 10
28.62992313752966
 20
189.6377635400131
 30
0.0
 10
28.47401675631682
 20
189.6377635400131
 30
0.0
 10
28.34645748138428
 20
189.5101664184767
 30
0.0
 10
28.34645748138428
 20
189.3542816638946
 30
0.0
 10
28.34645748138428
 20
189.3542816638946
 30
0.0
 10
28.34645748138428
 20
172.3464071750641
 30
0.0
 10
28.34645748138428
 20
172.3464071750641
 30
0.0
 10
28.34645748138428
 20
172.190522420482
 30
0.0
 10
28.47401675631682
 20
172.0629252989456
 30
0.0
 10
28.62992313752966
 20
172.0629252989456
 30
0.0
 10
28.62992313752966
 20
172.0629252989456
 30
0.0
 10
36.85039472579956
 20
172.0629252989456
 30
0.0
 10
36.85039472579956
 20
172.0629252989456
 30
0.0
 10
37.13386038194494
 20
172.0629252989456
 30
0.0
 10
36.85039472579956
 20
172.3464071750641
 30
0.0
 10
36.85039472579956
 20
172.0629252989456
 30
0.0
 10
36.85039472579956
 20
172.0629252989456
 30
0.0
 10
36.85039472579956
 20
155.622014562352
 30
0.0
 10
36.85039472579956
 20
155.622014562352
 30
0.0
 10
36.85039472579956
 20
155.3385326862335
 30
0.0
 10
37.13386038194494
 20
155.622014562352
 30
0.0
 10
36.85039472579956
 20
155.622014562352
 30
0.0
 10
36.85039472579956
 20
155.622014562352
 30
0.0
 10
28.62992313752966
 20
155.622014562352
 30
0.0
 10
28.62992313752966
 20
155.622014562352
 30
0.0
 10
28.47401675631682
 20
155.622014562352
 30
0.0
 10
28.34645748138428
 20
155.4944174408156
 30
0.0
 10
28.34645748138428
 20
155.3385326862335
 30
0.0
 10
28.34645748138428
 20
155.3385326862335
 30
0.0
 10
28.34645748138428
 20
138.3306581974029
 30
0.0
 10
28.34645748138428
 20
138.3306581974029
 30
0.0
 10
28.34645748138428
 20
138.1747734428208
 30
0.0
 10
28.47401675631682
 20
138.0471763212845
 30
0.0
 10
28.62992313752966
 20
138.0471763212845
 30
0.0
 10
28.62992313752966
 20
138.0471763212845
 30
0.0
 10
36.85039472579956
 20
138.0471763212845
 30
0.0
 10
36.85039472579956
 20
138.0471763212845
 30
0.0
 10
37.13386038194494
 20
138.0471763212845
 30
0.0
 10
36.85039472579956
 20
138.3306581974029
 30
0.0
 10
36.85039472579956
 20
138.0471763212845
 30
0.0
 10
36.85039472579956
 20
138.0471763212845
 30
0.0
 10
36.85039472579956
 20
121.6062655846908
 30
0.0
 10
36.85039472579956
 20
121.6062655846908
 30
0.0
 10
36.85039472579956
 20
121.3227837085724
 30
0.0
 10
37.13386038194494
 20
121.6062655846908
 30
0.0
 10
36.85039472579956
 20
121.6062655846908
 30
0.0
 10
36.85039472579956
 20
121.6062655846908
 30
0.0
 10
28.62992313752966
 20
121.6062655846908
 30
0.0
 10
28.62992313752966
 20
121.6062655846908
 30
0.0
 10
28.47401675631682
 20
121.6062655846908
 30
0.0
 10
28.34645748138428
 20
121.4786684631544
 30
0.0
 10
28.34645748138428
 20
121.3227837085724
 30
0.0
 10
28.34645748138428
 20
121.3227837085724
 30
0.0
 10
28.34645748138428
 20
104.3149092197418
 30
0.0
 10
28.34645748138428
 20
104.3149092197418
 30
0.0
 10
28.34645748138428
 20
104.1590244651597
 30
0.0
 10
28.47401675631682
 20
104.0314273436233
 30
0.0
 10
28.62992313752966
 20
104.0314273436233
 30
0.0
 10
28.62992313752966
 20
104.0314273436233
 30
0.0
 10
36.85039472579956
 20
104.0314273436233
 30
0.0
 10
36.85039472579956
 20
104.0314273436233
 30
0.0
 10
37.13386038194494
 20
104.0314273436233
 30
0.0
 10
36.85039472579956
 20
104.3149092197418
 30
0.0
 10
36.85039472579956
 20
104.0314273436233
 30
0.0
 10
36.85039472579956
 20
104.0314273436233
 30
0.0
 10
36.85039472579956
 20
87.5905166070297
 30
0.0
 10
36.85039472579956
 20
87.5905166070297
 30
0.0
 10
36.85039472579956
 20
87.30703473091125
 30
0.0
 10
37.13386038194494
 20
87.5905166070297
 30
0.0
 10
36.85039472579956
 20
87.5905166070297
 30
0.0
 10
36.85039472579956
 20
87.5905166070297
 30
0.0
 10
28.62992313752966
 20
87.5905166070297
 30
0.0
 10
28.62992313752966
 20
87.5905166070297
 30
0.0
 10
28.47401675631682
 20
87.5905166070297
 30
0.0
 10
28.34645748138428
 20
87.46291948549332
 30
0.0
 10
28.34645748138428
 20
87.30703473091125
 30
0.0
 10
28.34645748138428
 20
87.30703473091125
 30
0.0
 10
28.34645748138428
 20
61.7952229976654
 30
0.0
 10
28.34645748138428
 20
61.7952229976654
 30
0.0
 10
28.34645748138428
 20
61.63933824308333
 30
0.0
 10
28.47401675631682
 20
61.51174112154695
 30
0.0
 10
28.62992313752966
 20
61.51174112154695
 30
0.0
 10
28.62992313752966
 20
61.51174112154695
 30
0.0
 10
37.13386038194494
 20
61.51174112154695
 30
0.0
 10
37.13386038194494
 20
61.51174112154695
 30
0.0
  0
ENDBLK
  5
80
330
7D
100
AcDbEntity
  8
0
100
AcDbBlockEnd
  0
BLOCK
  5
8D
330
8B
100
AcDbEntity
  8
0
100
AcDbBlockBegin
  2
Block_2
 70
     0
 10
0.0
 20
0.0
 30
0.0
  3
Block_2
  1

  0
SPLINE
  5
8F
330
8B
100
AcDbEntity
  8
svg38
 62
   250
420
  2299925
370
    20
100
AcDbSpline
210
0.0
220
0.0
230
1.0
 70
    11
 71
     3
 72
    32
 73
    28
 74
     0
 42
0.0000000001
 43
0.0000000001
 40
0.0
 40
0.0
 40
0.0
 40
0.0
 40
1.0
 40
1.0
 40
1.0
 40
2.0
 40
2.0
 40
2.0
 40
3.0
 40
3.0
 40
3.0
 40
4.0
 40
4.0
 40
4.0
 40
5.0
 40
5.0
 40
5.0
 40
6.0
 40
6.0
 40
6.0
 40
7.0
 40
7.0
 40
7.0
 40
8.0
 40
8.0
 40
8.0
 40
9.0
 40
9.0
 40
9.0
 40
9.0
 10
373.6063182552971
 20
70.58264211819914
 30
0.0
 10
373.6063182552971
 20
70.58264211819914
 30
0.0
 10
365.3858196337387
 20
70.58264211819914
 30
0.0
 10
365.3858196337387
 20
70.58264211819914
 30
0.0
 10
365.1023810108818
 20
70.58264211819914
 30
0.0
 10
365.3858196337387
 20
70.29916024208069
 30
0.0
 10
365.3858196337387
 20
70.58264211819914
 30
0.0
 10
365.3858196337387
 20
70.58264211819914
 30
0.0
 10
365.3858196337387
 20
78.51961561037751
 30
0.0
 10
365.3858196337387
 20
78.51961561037751
 30
0.0
 10
365.3858196337387
 20
78.80309748649597
 30
0.0
 10
365.1023810108818
 20
78.51961561037751
 30
0.0
 10
365.3858196337387
 20
78.51961561037751
 30
0.0
 10
365.3858196337387
 20
78.51961561037751
 30
0.0
 10
381.8267736235939
 20
78.51961561037751
 30
0.0
 10
381.8267736235939
 20
78.51961561037751
 30
0.0
 10
382.1102554997123
 20
78.51961561037751
 30
0.0
 10
381.8267736235939
 20
78.80309748649597
 30
0.0
 10
381.8267736235939
 20
78.51961561037751
 30
0.0
 10
381.8267736235939
 20
78.51961561037751
 30
0.0
 10
381.8267736235939
 20
70.58264211819914
 30
0.0
 10
381.8267736235939
 20
70.58264211819914
 30
0.0
 10
381.8267736235939
 20
70.29916024208069
 30
0.0
 10
382.1102554997123
 20
70.58264211819914
 30
0.0
 10
381.8267736235939
 20
70.58264211819914
 30
0.0
 10
381.8267736235939
 20
70.58264211819914
 30
0.0
 10
373.6063182552971
 20
70.58264211819914
 30
0.0
 10
373.6063182552971
 20
70.58264211819914
 30
0.0
  0
SPLINE
  5
90
330
8B
100
AcDbEntity
  8
svg38
 62
   250
420
  2299925
370
    20
100
AcDbSpline
210
0.0
220
0.0
230
1.0
 70
    11
 71
     3
 72
    32
 73
    28
 74
     0
 42
0.0000000001
 43
0.0000000001
 40
0.0
 40
0.0
 40
0.0
 40
0.0
 40
1.0
 40
1.0
 40
1.0
 40
2.0
 40
2.0
 40
2.0
 40
3.0
 40
3.0
 40
3.0
 40
4.0
 40
4.0
 40
4.0
 40
5.0
 40
5.0
 40
5.0
 40
6.0
 40
6.0
 40
6.0
 40
7.0
 40
7.0
 40
7.0
 40
8.0
 40
8.0
 40
8.0
 40
9.0
 40
9.0
 40
9.0
 40
9.0
 10
407.6220672329582
 20
70.58264211819914
 30
0.0
 10
407.6220672329582
 20
70.58264211819914
 30
0.0
 10
399.4015686113998
 20
70.58264211819914
 30
0.0
 10
399.4015686113998
 20
70.58264211819914
 30
0.0
 10
399.1181299885429
 20
70.58264211819914
 30
0.0
 10
399.4015686113998
 20
70.29916024208069
 30
0.0
 10
399.4015686113998
 20
70.58264211819914
 30
0.0
 10
399.4015686113998
 20
70.58264211819914
 30
0.0
 10
399.4015686113998
 20
78.51961561037751
 30
0.0
 10
399.4015686113998
 20
78.51961561037751
 30
0.0
 10
399.4015686113998
 20
78.80309748649597
 30
0.0
 10
399.1181299885429
 20
78.51961561037751
 30
0.0
 10
399.4015686113998
 20
78.51961561037751
 30
0.0
 10
399.4015686113998
 20
78.51961561037751
 30
0.0
 10
415.842522601255
 20
78.51961561037751
 30
0.0
 10
415.842522601255
 20
78.51961561037751
 30
0.0
 10
416.1260044773735
 20
78.51961561037751
 30
0.0
 10
415.842522601255
 20
78.80309748649597
 30
0.0
 10
415.842522601255
 20
78.51961561037751
 30
0.0
 10
415.842522601255
 20
78.51961561037751
 30
0.0
 10
415.842522601255
 20
70.58264211819914
 30
0.0
 10
415.842522601255
 20
70.58264211819914
 30
0.0
 10
415.842522601255
 20
70.29916024208069
 30
0.0
 10
416.1260044773735
 20
70.58264211819914
 30
0.0
 10
415.842522601255
 20
70.58264211819914
 30
0.0
 10
415.842522601255
 20
70.58264211819914
 30
0.0
 10
407.6220672329582
 20
70.58264211819914
 30
0.0
 10
407.6220672329582
 20
70.58264211819914
 30
0.0
  0
SPLINE
  5
91
330
8B
100
AcDbEntity
  8
svg38
 62
   250
420
  2299925
370
    20
100
AcDbSpline
210
0.0
220
0.0
230
1.0
 70
    11
 71
     3
 72
    32
 73
    28
 74
     0
 42
0.0000000001
 43
0.0000000001
 40
0.0
 40
0.0
 40
0.0
 40
0.0
 40
1.0
 40
1.0
 40
1.0
 40
2.0
 40
2.0
 40
2.0
 40
3.0
 40
3.0
 40
3.0
 40
4.0
 40
4.0
 40
4.0
 40
5.0
 40
5.0
 40
5.0
 40
6.0
 40
6.0
 40
6.0
 40
7.0
 40
7.0
 40
7.0
 40
8.0
 40
8.0
 40
8.0
 40
9.0
 40
9.0
 40
9.0
 40
9.0
 10
441.6378162106193
 20
70.58264211819914
 30
0.0
 10
441.6378162106193
 20
70.58264211819914
 30
0.0
 10
433.417317589061
 20
70.58264211819914
 30
0.0
 10
433.417317589061
 20
70.58264211819914
 30
0.0
 10
433.133878966204
 20
70.58264211819914
 30
0.0
 10
433.417317589061
 20
70.29916024208069
 30
0.0
 10
433.417317589061
 20
70.58264211819914
 30
0.0
 10
433.417317589061
 20
70.58264211819914
 30
0.0
 10
433.417317589061
 20
78.51961561037751
 30
0.0
 10
433.417317589061
 20
78.51961561037751
 30
0.0
 10
433.417317589061
 20
78.80309748649597
 30
0.0
 10
433.133878966204
 20
78.51961561037751
 30
0.0
 10
433.417317589061
 20
78.51961561037751
 30
0.0
 10
433.417317589061
 20
78.51961561037751
 30
0.0
 10
449.8582715789162
 20
78.51961561037751
 30
0.0
 10
449.8582715789162
 20
78.51961561037751
 30
0.0
 10
450.1417534550346
 20
78.51961561037751
 30
0.0
 10
449.8582715789162
 20
78.80309748649597
 30
0.0
 10
449.8582715789162
 20
78.51961561037751
 30
0.0
 10
449.8582715789162
 20
78.51961561037751
 30
0.0
 10
449.8582715789162
 20
70.58264211819914
 30
0.0
 10
449.8582715789162
 20
70.58264211819914
 30
0.0
 10
449.8582715789162
 20
70.29916024208069
 30
0.0
 10
450.1417534550346
 20
70.58264211819914
 30
0.0
 10
449.8582715789162
 20
70.58264211819914
 30
0.0
 10
449.8582715789162
 20
70.58264211819914
 30
0.0
 10
441.6378162106193
 20
70.58264211819914
 30
0.0
 10
441.6378162106193
 20
70.58264211819914
 30
0.0
  0
SPLINE
  5
92
330
8B
100
AcDbEntity
  8
svg38
 62
   250
420
  2299925
370
    20
100
AcDbSpline
210
0.0
220
0.0
230
1.0
 70
    11
 71
     3
 72
    32
 73
    28
 74
     0
 42
0.0000000001
 43
0.0000000001
 40
0.0
 40
0.0
 40
0.0
 40
0.0
 40
1.0
 40
1.0
 40
1.0
 40
2.0
 40
2.0
 40
2.0
 40
3.0
 40
3.0
 40
3.0
 40
4.0
 40
4.0
 40
4.0
 40
5.0
 40
5.0
 40
5.0
 40
6.0
 40
6.0
 40
6.0
 40
7.0
 40
7.0
 40
7.0
 40
8.0
 40
8.0
 40
8.0
 40
9.0
 40
9.0
 40
9.0
 40
9.0
 10
475.6535651882805
 20
70.58264211819914
 30
0.0
 10
475.6535651882805
 20
70.58264211819914
 30
0.0
 10
467.4330665667221
 20
70.58264211819914
 30
0.0
 10
467.4330665667221
 20
70.58264211819914
 30
0.0
 10
467.1496279438652
 20
70.58264211819914
 30
0.0
 10
467.4330665667221
 20
70.29916024208069
 30
0.0
 10
467.4330665667221
 20
70.58264211819914
 30
0.0
 10
467.4330665667221
 20
70.58264211819914
 30
0.0
 10
467.4330665667221
 20
78.51961561037751
 30
0.0
 10
467.4330665667221
 20
78.51961561037751
 30
0.0
 10
467.4330665667221
 20
78.80309748649597
 30
0.0
 10
467.1496279438652
 20
78.51961561037751
 30
0.0
 10
467.4330665667221
 20
78.51961561037751
 30
0.0
 10
467.4330665667221
 20
78.51961561037751
 30
0.0
 10
483.8740205565772
 20
78.51961561037751
 30
0.0
 10
483.8740205565772
 20
78.51961561037751
 30
0.0
 10
484.1575024326957
 20
78.51961561037751
 30
0.0
 10
483.8740205565772
 20
78.80309748649597
 30
0.0
 10
483.8740205565772
 20
78.51961561037751
 30
0.0
 10
483.8740205565772
 20
78.51961561037751
 30
0.0
 10
483.8740205565772
 20
70.58264211819914
 30
0.0
 10
483.8740205565772
 20
70.58264211819914
 30
0.0
 10
483.8740205565772
 20
70.29916024208069
 30
0.0
 10
484.1575024326957
 20
70.58264211819914
 30
0.0
 10
483.8740205565772
 20
70.58264211819914
 30
0.0
 10
483.8740205565772
 20
70.58264211819914
 30
0.0
 10
475.6535651882805
 20
70.58264211819914
 30
0.0
 10
475.6535651882805
 20
70.58264211819914
 30
0.0
  0
SPLINE
  5
93
330
8B
100
AcDbEntity
  8
svg38
 62
   250
420
  2299925
370
    20
100
AcDbSpline
210
0.0
220
0.0
230
1.0
 70
    11
 71
     3
 72
    32
 73
    28
 74
     0
 42
0.0000000001
 43
0.0000000001
 40
0.0
 40
0.0
 40
0.0
 40
0.0
 40
1.0
 40
1.0
 40
1.0
 40
2.0
 40
2.0
 40
2.0
 40
3.0
 40
3.0
 40
3.0
 40
4.0
 40
4.0
 40
4.0
 40
5.0
 40
5.0
 40
5.0
 40
6.0
 40
6.0
 40
6.0
 40
7.0
 40
7.0
 40
7.0
 40
8.0
 40
8.0
 40
8.0
 40
9.0
 40
9.0
 40
9.0
 40
9.0
 10
509.6693141659415
 20
70.58264211819914
 30
0.0
 10
509.6693141659415
 20
70.58264211819914
 30
0.0
 10
501.4488155443832
 20
70.58264211819914
 30
0.0
 10
501.4488155443832
 20
70.58264211819914
 30
0.0
 10
501.1653769215263
 20
70.58264211819914
 30
0.0
 10
501.4488155443832
 20
70.29916024208069
 30
0.0
 10
501.4488155443832
 20
70.58264211819914
 30
0.0
 10
501.4488155443832
 20
70.58264211819914
 30
0.0
 10
501.4488155443832
 20
78.51961561037751
 30
0.0
 10
501.4488155443832
 20
78.51961561037751
 30
0.0
 10
501.4488155443832
 20
78.80309748649597
 30
0.0
 10
501.1653769215263
 20
78.51961561037751
 30
0.0
 10
501.4488155443832
 20
78.51961561037751
 30
0.0
 10
501.4488155443832
 20
78.51961561037751
 30
0.0
 10
517.8897695342384
 20
78.51961561037751
 30
0.0
 10
517.8897695342384
 20
78.51961561037751
 30
0.0
 10
518.1732514103568
 20
78.51961561037751
 30
0.0
 10
517.8897695342384
 20
78.80309748649597
 30
0.0
 10
517.8897695342384
 20
78.51961561037751
 30
0.0
 10
517.8897695342384
 20
78.51961561037751
 30
0.0
 10
517.8897695342384
 20
70.58264211819914
 30
0.0
 10
517.8897695342384
 20
70.58264211819914
 30
0.0
 10
517.8897695342384
 20
70.29916024208069
 30
0.0
 10
518.1732514103568
 20
70.58264211819914
 30
0.0
 10
517.8897695342384
 20
70.58264211819914
 30
0.0
 10
517.8897695342384
 20
70.58264211819914
 30
0.0
 10
509.6693141659415
 20
70.58264211819914
 30
0.0
 10
509.6693141659415
 20
70.58264211819914
 30
0.0
  0
SPLINE
  5
94
330
8B
100
AcDbEntity
  8
svg38
 62
   250
420
  2299925
370
    20
100
AcDbSpline
210
0.0
220
0.0
230
1.0
 70
    11
 71
     3
 72
    32
 73
    28
 74
     0
 42
0.0000000001
 43
0.0000000001
 40
0.0
 40
0.0
 40
0.0
 40
0.0
 40
1.0
 40
1.0
 40
1.0
 40
2.0
 40
2.0
 40
2.0
 40
3.0
 40
3.0
 40
3.0
 40
4.0
 40
4.0
 40
4.0
 40
5.0
 40
5.0
 40
5.0
 40
6.0
 40
6.0
 40
6.0
 40
7.0
 40
7.0
 40
7.0
 40
8.0
 40
8.0
 40
8.0
 40
9.0
 40
9.0
 40
9.0
 40
9.0
 10
543.6850631436027
 20
70.58264211819914
 30
0.0
 10
543.6850631436027
 20
70.58264211819914
 30
0.0
 10
535.4645645220443
 20
70.58264211819914
 30
0.0
 10
535.4645645220443
 20
70.58264211819914
 30
0.0
 10
535.1811258991874
 20
70.58264211819914
 30
0.0
 10
535.4645645220443
 20
70.29916024208069
 30
0.0
 10
535.4645645220443
 20
70.58264211819914
 30
0.0
 10
535.4645645220443
 20
70.58264211819914
 30
0.0
 10
535.4645645220443
 20
78.51961561037751
 30
0.0
 10
535.4645645220443
 20
78.51961561037751
 30
0.0
 10
535.4645645220443
 20
78.80309748649597
 30
0.0
 10
535.1811258991874
 20
78.51961561037751
 30
0.0
 10
535.4645645220443
 20
78.51961561037751
 30
0.0
 10
535.4645645220443
 20
78.51961561037751
 30
0.0
 10
551.9055185118995
 20
78.51961561037751
 30
0.0
 10
551.9055185118995
 20
78.51961561037751
 30
0.0
 10
552.189000388018
 20
78.51961561037751
 30
0.0
 10
551.9055185118995
 20
78.80309748649597
 30
0.0
 10
551.9055185118995
 20
78.51961561037751
 30
0.0
 10
551.9055185118995
 20
78.51961561037751
 30
0.0
 10
551.9055185118995
 20
70.58264211819914
 30
0.0
 10
551.9055185118995
 20
70.58264211819914
 30
0.0
 10
551.9055185118995
 20
70.29916024208069
 30
0.0
 10
552.189000388018
 20
70.58264211819914
 30
0.0
 10
551.9055185118995
 20
70.58264211819914
 30
0.0
 10
551.9055185118995
 20
70.58264211819914
 30
0.0
 10
543.6850631436027
 20
70.58264211819914
 30
0.0
 10
543.6850631436027
 20
70.58264211819914
 30
0.0
  0
SPLINE
  5
95
330
8B
100
AcDbEntity
  8
svg38
 62
   250
420
  2299925
370
    20
100
AcDbSpline
210
0.0
220
0.0
230
1.0
 70
    11
 71
     3
 72
    32
 73
    28
 74
     0
 42
0.0000000001
 43
0.0000000001
 40
0.0
 40
0.0
 40
0.0
 40
0.0
 40
1.0
 40
1.0
 40
1.0
 40
2.0
 40
2.0
 40
2.0
 40
3.0
 40
3.0
 40
3.0
 40
4.0
 40
4.0
 40
4.0
 40
5.0
 40
5.0
 40
5.0
 40
6.0
 40
6.0
 40
6.0
 40
7.0
 40
7.0
 40
7.0
 40
8.0
 40
8.0
 40
8.0
 40
9.0
 40
9.0
 40
9.0
 40
9.0
 10
577.7008121212638
 20
70.58264211819914
 30
0.0
 10
577.7008121212638
 20
70.58264211819914
 30
0.0
 10
569.4803134997055
 20
70.58264211819914
 30
0.0
 10
569.4803134997055
 20
70.58264211819914
 30
0.0
 10
569.1968748768486
 20
70.58264211819914
 30
0.0
 10
569.4803134997055
 20
70.29916024208069
 30
0.0
 10
569.4803134997055
 20
70.58264211819914
 30
0.0
 10
569.4803134997055
 20
70.58264211819914
 30
0.0
 10
569.4803134997055
 20
78.51961561037751
 30
0.0
 10
569.4803134997055
 20
78.51961561037751
 30
0.0
 10
569.4803134997055
 20
78.80309748649597
 30
0.0
 10
569.1968748768486
 20
78.51961561037751
 30
0.0
 10
569.4803134997055
 20
78.51961561037751
 30
0.0
 10
569.4803134997055
 20
78.51961561037751
 30
0.0
 10
585.9212674895607
 20
78.51961561037751
 30
0.0
 10
585.9212674895607
 20
78.51961561037751
 30
0.0
 10
586.2047493656791
 20
78.51961561037751
 30
0.0
 10
585.9212674895607
 20
78.80309748649597
 30
0.0
 10
585.9212674895607
 20
78.51961561037751
 30
0.0
 10
585.9212674895607
 20
78.51961561037751
 30
0.0
 10
585.9212674895607
 20
70.58264211819914
 30
0.0
 10
585.9212674895607
 20
70.58264211819914
 30
0.0
 10
585.9212674895607
 20
70.29916024208069
 30
0.0
 10
586.2047493656791
 20
70.58264211819914
 30
0.0
 10
585.9212674895607
 20
70.58264211819914
 30
0.0
 10
585.9212674895607
 20
70.58264211819914
 30
0.0
 10
577.7008121212638
 20
70.58264211819914
 30
0.0
 10
577.7008121212638
 20
70.58264211819914
 30
0.0
  0
SPLINE
  5
96
330
8B
100
AcDbEntity
  8
svg38
 62
   250
420
  2299925
370
    20
100
AcDbSpline
210
0.0
220
0.0
230
1.0
 70
    11
 71
     3
 72
    32
 73
    28
 74
     0
 42
0.0000000001
 43
0.0000000001
 40
0.0
 40
0.0
 40
0.0
 40
0.0
 40
1.0
 40
1.0
 40
1.0
 40
2.0
 40
2.0
 40
2.0
 40
3.0
 40
3.0
 40
3.0
 40
4.0
 40
4.0
 40
4.0
 40
5.0
 40
5.0
 40
5.0
 40
6.0
 40
6.0
 40
6.0
 40
7.0
 40
7.0
 40
7.0
 40
8.0
 40
8.0
 40
8.0
 40
9.0
 40
9.0
 40
9.0
 40
9.0
 10
611.716561098925
 20
70.58264211819914
 30
0.0
 10
611.716561098925
 20
70.58264211819914
 30
0.0
 10
603.4960624773666
 20
70.58264211819914
 30
0.0
 10
603.4960624773666
 20
70.58264211819914
 30
0.0
 10
603.2126238545097
 20
70.58264211819914
 30
0.0
 10
603.4960624773666
 20
70.29916024208069
 30
0.0
 10
603.4960624773666
 20
70.58264211819914
 30
0.0
 10
603.4960624773666
 20
70.58264211819914
 30
0.0
 10
603.4960624773666
 20
78.51961561037751
 30
0.0
 10
603.4960624773666
 20
78.51961561037751
 30
0.0
 10
603.4960624773666
 20
78.80309748649597
 30
0.0
 10
603.2126238545097
 20
78.51961561037751
 30
0.0
 10
603.4960624773666
 20
78.51961561037751
 30
0.0
 10
603.4960624773666
 20
78.51961561037751
 30
0.0
 10
619.9370164672218
 20
78.51961561037751
 30
0.0
 10
619.9370164672218
 20
78.51961561037751
 30
0.0
 10
620.2204983433403
 20
78.51961561037751
 30
0.0
 10
619.9370164672218
 20
78.80309748649597
 30
0.0
 10
619.9370164672218
 20
78.51961561037751
 30
0.0
 10
619.9370164672218
 20
78.51961561037751
 30
0.0
 10
619.9370164672218
 20
70.58264211819914
 30
0.0
 10
619.9370164672218
 20
70.58264211819914
 30
0.0
 10
619.9370164672218
 20
70.29916024208069
 30
0.0
 10
620.2204983433403
 20
70.58264211819914
 30
0.0
 10
619.9370164672218
 20
70.58264211819914
 30
0.0
 10
619.9370164672218
 20
70.58264211819914
 30
0.0
 10
611.716561098925
 20
70.58264211819914
 30
0.0
 10
611.716561098925
 20
70.58264211819914
 30
0.0
  0
SPLINE
  5
97
330
8B
100
AcDbEntity
  8
svg38
 62
   250
420
  2299925
370
    20
100
AcDbSpline
210
0.0
220
0.0
230
1.0
 70
     9
 71
     3
 72
   365
 73
   361
 74
     0
 42
0.0000000001
 43
0.0000000001
 40
0.0
 40
0.0
 40
0.0
 40
0.0
 40
1.0
 40
1.0
 40
1.0
 40
2.0
 40
2.0
 40
2.0
 40
3.0
 40
3.0
 40
3.0
 40
4.0
 40
4.0
 40
4.0
 40
5.0
 40
5.0
 40
5.0
 40
6.0
 40
6.0
 40
6.0
 40
7.0
 40
7.0
 40
7.0
 40
8.0
 40
8.0
 40
8.0
 40
9.0
 40
9.0
 40
9.0
 40
10.0
 40
10.0
 40
10.0
 40
11.0
 40
11.0
 40
11.0
 40
12.0
 40
12.0
 40
12.0
 40
13.0
 40
13.0
 40
13.0
 40
14.0
 40
14.0
 40
14.0
 40
15.0
 40
15.0
 40
15.0
 40
16.0
 40
16.0
 40
16.0
 40
17.0
 40
17.0
 40
17.0
 40
18.0
 40
18.0
 40
18.0
 40
19.0
 40
19.0
 40
19.0
 40
20.0
 40
20.0
 40
20.0
 40
21.0
 40
21.0
 40
21.0
 40
22.0
 40
22.0
 40
22.0
 40
23.0
 40
23.0
 40
23.0
 40
24.0
 40
24.0
 40
24.0
 40
25.0
 40
25.0
 40
25.0
 40
26.0
 40
26.0
 40
26.0
 40
27.0
 40
27.0
 40
27.0
 40
28.0
 40
28.0
 40
28.0
 40
29.0
 40
29.0
 40
29.0
 40
30.0
 40
30.0
 40
30.0
 40
31.0
 40
31.0
 40
31.0
 40
32.0
 40
32.0
 40
32.0
 40
33.0
 40
33.0
 40
33.0
 40
34.0
 40
34.0
 40
34.0
 40
35.0
 40
35.0
 40
35.0
 40
36.0
 40
36.0
 40
36.0
 40
37.0
 40
37.0
 40
37.0
 40
38.0
 40
38.0
 40
38.0
 40
39.0
 40
39.0
 40
39.0
 40
40.0
 40
40.0
 40
40.0
 40
41.0
 40
41.0
 40
41.0
 40
42.0
 40
42.0
 40
42.0
 40
43.0
 40
43.0
 40
43.0
 40
44.0
 40
44.0
 40
44.0
 40
45.0
 40
45.0
 40
45.0
 40
46.0
 40
46.0
 40
46.0
 40
47.0
 40
47.0
 40
47.0
 40
48.0
 40
48.0
 40
48.0
 40
49.0
 40
49.0
 40
49.0
 40
50.0
 40
50.0
 40
50.0
 40
51.0
 40
51.0
 40
51.0
 40
52.0
 40
52.0
 40
52.0
 40
53.0
 40
53.0
 40
53.0
 40
54.0
 40
54.0
 40
54.0
 40
55.0
 40
55.0
 40
55.0
 40
56.0
 40
56.0
 40
56.0
 40
57.0
 40
57.0
 40
57.0
 40
58.0
 40
58.0
 40
58.0
 40
59.0
 40
59.0
 40
59.0
 40
60.0
 40
60.0
 40
60.0
 40
61.0
 40
61.0
 40
61.0
 40
62.0
 40
62.0
 40
62.0
 40
63.0
 40
63.0
 40
63.0
 40
64.0
 40
64.0
 40
64.0
 40
65.0
 40
65.0
 40
65.0
 40
66.0
 40
66.0
 40
66.0
 40
67.0
 40
67.0
 40
67.0
 40
68.0
 40
68.0
 40
68.0
 40
69.0
 40
69.0
 40
69.0
 40
70.0
 40
70.0
 40
70.0
 40
71.0
 40
71.0
 40
71.0
 40
72.0
 40
72.0
 40
72.0
 40
73.0
 40
73.0
 40
73.0
 40
74.0
 40
74.0
 40
74.0
 40
75.0
 40
75.0
 40
75.0
 40
76.0
 40
76.0
 40
76.0
 40
77.0
 40
77.0
 40
77.0
 40
78.0
 40
78.0
 40
78.0
 40
79.0
 40
79.0
 40
79.0
 40
80.0
 40
80.0
 40
80.0
 40
81.0
 40
81.0
 40
81.0
 40
82.0
 40
82.0
 40
82.0
 40
83.0
 40
83.0
 40
83.0
 40
84.0
 40
84.0
 40
84.0
 40
85.0
 40
85.0
 40
85.0
 40
86.0
 40
86.0
 40
86.0
 40
87.0
 40
87.0
 40
87.0
 40
88.0
 40
88.0
 40
88.0
 40
89.0
 40
89.0
 40
89.0
 40
90.0
 40
90.0
 40
90.0
 40
91.0
 40
91.0
 40
91.0
 40
92.0
 40
92.0
 40
92.0
 40
93.0
 40
93.0
 40
93.0
 40
94.0
 40
94.0
 40
94.0
 40
95.0
 40
95.0
 40
95.0
 40
96.0
 40
96.0
 40
96.0
 40
97.0
 40
97.0
 40
97.0
 40
98.0
 40
98.0
 40
98.0
 40
99.0
 40
99.0
 40
99.0
 40
100.0
 40
100.0
 40
100.0
 40
101.0
 40
101.0
 40
101.0
 40
102.0
 40
102.0
 40
102.0
 40
103.0
 40
103.0
 40
103.0
 40
104.0
 40
104.0
 40
104.0
 40
105.0
 40
105.0
 40
105.0
 40
106.0
 40
106.0
 40
106.0
 40
107.0
 40
107.0
 40
107.0
 40
108.0
 40
108.0
 40
108.0
 40
109.0
 40
109.0
 40
109.0
 40
110.0
 40
110.0
 40
110.0
 40
111.0
 40
111.0
 40
111.0
 40
112.0
 40
112.0
 40
112.0
 40
113.0
 40
113.0
 40
113.0
 40
114.0
 40
114.0
 40
114.0
 40
115.0
 40
115.0
 40
115.0
 40
116.0
 40
116.0
 40
116.0
 40
117.0
 40
117.0
 40
117.0
 40
118.0
 40
118.0
 40
118.0
 40
119.0
 40
119.0
 40
119.0
 40
120.0
 40
120.0
 40
120.0
 40
120.0
 10
348.0945065220512
 20
61.51174112154695
 30
0.0
 10
348.0945065220512
 20
61.51174112154695
 30
0.0
 10
637.2283728321709
 20
61.51174112154695
 30
0.0
 10
637.2283728321709
 20
61.51174112154695
 30
0.0
 10
637.3842575867529
 20
61.51174112154695
 30
0.0
 10
637.5118114550278
 20
61.63933824308333
 30
0.0
 10
637.5118114550278
 20
61.7952229976654
 30
0.0
 10
637.5118114550278
 20
61.7952229976654
 30
0.0
 10
637.5118114550278
 20
87.0235528547928
 30
0.0
 10
637.5118114550278
 20
87.0235528547928
 30
0.0
 10
637.5118114550278
 20
87.30703473091125
 30
0.0
 10
637.2283728321709
 20
87.0235528547928
 30
0.0
 10
637.5118114550278
 20
87.0235528547928
 30
0.0
 10
637.5118114550278
 20
87.0235528547928
 30
0.0
 10
645.7323100765862
 20
87.0235528547928
 30
0.0
 10
645.7323100765862
 20
87.0235528547928
 30
0.0
 10
645.8881948311682
 20
87.0235528547928
 30
0.0
 10
646.0157486994431
 20
87.15114997632918
 30
0.0
 10
646.0157486994431
 20
87.30703473091125
 30
0.0
 10
646.0157486994431
 20
87.30703473091125
 30
0.0
 10
646.0157486994431
 20
104.3149092197418
 30
0.0
 10
646.0157486994431
 20
104.3149092197418
 30
0.0
 10
646.0157486994431
 20
104.4707939743239
 30
0.0
 10
645.8881948311682
 20
104.5983910958603
 30
0.0
 10
645.7323100765862
 20
104.5983910958603
 30
0.0
 10
645.7323100765862
 20
104.5983910958603
 30
0.0
 10
637.5118114550278
 20
104.5983910958603
 30
0.0
 10
637.5118114550278
 20
104.5983910958603
 30
0.0
 10
637.2283728321709
 20
104.5983910958603
 30
0.0
 10
637.5118114550278
 20
104.3149092197418
 30
0.0
 10
637.5118114550278
 20
104.5983910958603
 30
0.0
 10
637.5118114550278
 20
104.5983910958603
 30
0.0
 10
637.5118114550278
 20
121.0393018324539
 30
0.0
 10
637.5118114550278
 20
121.0393018324539
 30
0.0
 10
637.5118114550278
 20
121.3227837085724
 30
0.0
 10
637.2283728321709
 20
121.0393018324539
 30
0.0
 10
637.5118114550278
 20
121.0393018324539
 30
0.0
 10
637.5118114550278
 20
121.0393018324539
 30
0.0
 10
645.7323100765862
 20
121.0393018324539
 30
0.0
 10
645.7323100765862
 20
121.0393018324539
 30
0.0
 10
645.8881948311682
 20
121.0393018324539
 30
0.0
 10
646.0157486994431
 20
121.1668989539903
 30
0.0
 10
646.0157486994431
 20
121.3227837085724
 30
0.0
 10
646.0157486994431
 20
121.3227837085724
 30
0.0
 10
646.0157486994431
 20
138.3306581974029
 30
0.0
 10
646.0157486994431
 20
138.3306581974029
 30
0.0
 10
646.0157486994431
 20
138.486542951985
 30
0.0
 10
645.8881948311682
 20
138.6141400735214
 30
0.0
 10
645.7323100765862
 20
138.6141400735214
 30
0.0
 10
645.7323100765862
 20
138.6141400735214
 30
0.0
 10
637.5118114550278
 20
138.6141400735214
 30
0.0
 10
637.5118114550278
 20
138.6141400735214
 30
0.0
 10
637.2283728321709
 20
138.6141400735214
 30
0.0
 10
637.5118114550278
 20
138.3306581974029
 30
0.0
 10
637.5118114550278
 20
138.6141400735214
 30
0.0
 10
637.5118114550278
 20
138.6141400735214
 30
0.0
 10
637.5118114550278
 20
155.055050810115
 30
0.0
 10
637.5118114550278
 20
155.055050810115
 30
0.0
 10
637.5118114550278
 20
155.3385326862335
 30
0.0
 10
637.2283728321709
 20
155.055050810115
 30
0.0
 10
637.5118114550278
 20
155.055050810115
 30
0.0
 10
637.5118114550278
 20
155.055050810115
 30
0.0
 10
645.7323100765862
 20
155.055050810115
 30
0.0
 10
645.7323100765862
 20
155.055050810115
 30
0.0
 10
645.8881948311682
 20
155.055050810115
 30
0.0
 10
646.0157486994431
 20
155.1826479316514
 30
0.0
 10
646.0157486994431
 20
155.3385326862335
 30
0.0
 10
646.0157486994431
 20
155.3385326862335
 30
0.0
 10
646.0157486994431
 20
172.3464071750641
 30
0.0
 10
646.0157486994431
 20
172.3464071750641
 30
0.0
 10
646.0157486994431
 20
172.5022919296461
 30
0.0
 10
645.8881948311682
 20
172.6298890511825
 30
0.0
 10
645.7323100765862
 20
172.6298890511825
 30
0.0
 10
645.7323100765862
 20
172.6298890511825
 30
0.0
 10
637.5118114550278
 20
172.6298890511825
 30
0.0
 10
637.5118114550278
 20
172.6298890511825
 30
0.0
 10
637.2283728321709
 20
172.6298890511825
 30
0.0
 10
637.5118114550278
 20
172.3464071750641
 30
0.0
 10
637.5118114550278
 20
172.6298890511825
 30
0.0
 10
637.5118114550278
 20
172.6298890511825
 30
0.0
 10
637.5118114550278
 20
189.0707997877762
 30
0.0
 10
637.5118114550278
 20
189.0707997877762
 30
0.0
 10
637.5118114550278
 20
189.3542816638946
 30
0.0
 10
637.2283728321709
 20
189.0707997877762
 30
0.0
 10
637.5118114550278
 20
189.0707997877762
 30
0.0
 10
637.5118114550278
 20
189.0707997877762
 30
0.0
 10
645.7323100765862
 20
189.0707997877762
 30
0.0
 10
645.7323100765862
 20
189.0707997877762
 30
0.0
 10
645.8881948311682
 20
189.0707997877762
 30
0.0
 10
646.0157486994431
 20
189.1983969093125
 30
0.0
 10
646.0157486994431
 20
189.3542816638946
 30
0.0
 10
646.0157486994431
 20
189.3542816638946
 30
0.0
 10
646.0157486994431
 20
206.3621561527252
 30
0.0
 10
646.0157486994431
 20
206.3621561527252
 30
0.0
 10
646.0157486994431
 20
206.5180409073073
 30
0.0
 10
645.8881948311682
 20
206.6456380288437
 30
0.0
 10
645.7323100765862
 20
206.6456380288437
 30
0.0
 10
645.7323100765862
 20
206.6456380288437
 30
0.0
 10
637.5118114550278
 20
206.6456380288437
 30
0.0
 10
637.5118114550278
 20
206.6456380288437
 30
0.0
 10
637.2283728321709
 20
206.6456380288437
 30
0.0
 10
637.5118114550278
 20
206.3621561527252
 30
0.0
 10
637.5118114550278
 20
206.6456380288437
 30
0.0
 10
637.5118114550278
 20
206.6456380288437
 30
0.0
 10
637.5118114550278
 20
223.0865487654373
 30
0.0
 10
637.5118114550278
 20
223.0865487654373
 30
0.0
 10
637.5118114550278
 20
223.3700306415558
 30
0.0
 10
637.2283728321709
 20
223.0865487654373
 30
0.0
 10
637.5118114550278
 20
223.0865487654373
 30
0.0
 10
637.5118114550278
 20
223.0865487654373
 30
0.0
 10
645.7323100765862
 20
223.0865487654373
 30
0.0
 10
645.7323100765862
 20
223.0865487654373
 30
0.0
 10
645.8881948311682
 20
223.0865487654373
 30
0.0
 10
646.0157486994431
 20
223.2141458869737
 30
0.0
 10
646.0157486994431
 20
223.3700306415558
 30
0.0
 10
646.0157486994431
 20
223.3700306415558
 30
0.0
 10
646.0157486994431
 20
240.3779051303863
 30
0.0
 10
646.0157486994431
 20
240.3779051303863
 30
0.0
 10
646.0157486994431
 20
240.5337898849684
 30
0.0
 10
645.8881948311682
 20
240.6613870065048
 30
0.0
 10
645.7323100765862
 20
240.6613870065048
 30
0.0
 10
645.7323100765862
 20
240.6613870065048
 30
0.0
 10
637.5118114550278
 20
240.6613870065048
 30
0.0
 10
637.5118114550278
 20
240.6613870065048
 30
0.0
 10
637.2283728321709
 20
240.6613870065048
 30
0.0
 10
637.5118114550278
 20
240.3779051303863
 30
0.0
 10
637.5118114550278
 20
240.6613870065048
 30
0.0
 10
637.5118114550278
 20
240.6613870065048
 30
0.0
 10
637.5118114550278
 20
257.1022977430985
 30
0.0
 10
637.5118114550278
 20
257.1022977430985
 30
0.0
 10
637.5118114550278
 20
257.3857796192169
 30
0.0
 10
637.2283728321709
 20
257.1022977430985
 30
0.0
 10
637.5118114550278
 20
257.1022977430985
 30
0.0
 10
637.5118114550278
 20
257.1022977430985
 30
0.0
 10
645.7323100765862
 20
257.1022977430985
 30
0.0
 10
645.7323100765862
 20
257.1022977430985
 30
0.0
 10
645.8881948311682
 20
257.1022977430985
 30
0.0
 10
646.0157486994431
 20
257.2298948646349
 30
0.0
 10
646.0157486994431
 20
257.3857796192169
 30
0.0
 10
646.0157486994431
 20
257.3857796192169
 30
0.0
 10
646.0157486994431
 20
274.3936541080475
 30
0.0
 10
646.0157486994431
 20
274.3936541080475
 30
0.0
 10
646.0157486994431
 20
274.5495388626296
 30
0.0
 10
645.8881948311682
 20
274.6771359841659
 30
0.0
 10
645.7323100765862
 20
274.6771359841659
 30
0.0
 10
645.7323100765862
 20
274.6771359841659
 30
0.0
 10
637.5118114550278
 20
274.6771359841659
 30
0.0
 10
637.5118114550278
 20
274.6771359841659
 30
0.0
 10
637.2283728321709
 20
274.6771359841659
 30
0.0
 10
637.5118114550278
 20
274.3936541080475
 30
0.0
 10
637.5118114550278
 20
274.6771359841659
 30
0.0
 10
637.5118114550278
 20
274.6771359841659
 30
0.0
 10
637.5118114550278
 20
291.1180467207596
 30
0.0
 10
637.5118114550278
 20
291.1180467207596
 30
0.0
 10
637.5118114550278
 20
291.4015285968781
 30
0.0
 10
637.2283728321709
 20
291.1180467207596
 30
0.0
 10
637.5118114550278
 20
291.1180467207596
 30
0.0
 10
637.5118114550278
 20
291.1180467207596
 30
0.0
 10
645.7323100765862
 20
291.1180467207596
 30
0.0
 10
645.7323100765862
 20
291.1180467207596
 30
0.0
 10
645.8881948311682
 20
291.1180467207596
 30
0.0
 10
646.0157486994431
 20
291.245643842296
 30
0.0
 10
646.0157486994431
 20
291.4015285968781
 30
0.0
 10
646.0157486994431
 20
291.4015285968781
 30
0.0
 10
646.0157486994431
 20
308.4094030857086
 30
0.0
 10
646.0157486994431
 20
308.4094030857086
 30
0.0
 10
646.0157486994431
 20
308.5652878402907
 30
0.0
 10
645.8881948311682
 20
308.6928849618271
 30
0.0
 10
645.7323100765862
 20
308.6928849618271
 30
0.0
 10
645.7323100765862
 20
308.6928849618271
 30
0.0
 10
637.5118114550278
 20
308.6928849618271
 30
0.0
 10
637.5118114550278
 20
308.6928849618271
 30
0.0
 10
637.2283728321709
 20
308.6928849618271
 30
0.0
 10
637.5118114550278
 20
308.4094030857086
 30
0.0
 10
637.5118114550278
 20
308.6928849618271
 30
0.0
 10
637.5118114550278
 20
308.6928849618271
 30
0.0
 10
637.5118114550278
 20
333.9212148189545
 30
0.0
 10
637.5118114550278
 20
333.9212148189545
 30
0.0
 10
637.5118114550278
 20
334.0770995735365
 30
0.0
 10
637.3842575867529
 20
334.2046966950729
 30
0.0
 10
637.2283728321709
 20
334.2046966950729
 30
0.0
 10
637.2283728321709
 20
334.2046966950729
 30
0.0
 10
348.0945065220512
 20
334.2046966950729
 30
0.0
 10
348.0945065220512
 20
334.2046966950729
 30
0.0
 10
347.9386001408384
 20
334.2046966950729
 30
0.0
 10
347.8110246459328
 20
334.0770995735365
 30
0.0
 10
347.8110246459328
 20
333.9212148189545
 30
0.0
 10
347.8110246459328
 20
333.9212148189545
 30
0.0
 10
347.8110246459328
 20
308.6928849618271
 30
0.0
 10
347.8110246459328
 20
308.6928849618271
 30
0.0
 10
347.8110246459328
 20
308.4094030857086
 30
0.0
 10
348.0945065220512
 20
308.6928849618271
 30
0.0
 10
347.8110246459328
 20
308.6928849618271
 30
0.0
 10
347.8110246459328
 20
308.6928849618271
 30
0.0
 10
339.590569277636
 20
308.6928849618271
 30
0.0
 10
339.590569277636
 20
308.6928849618271
 30
0.0
 10
339.4346628964231
 20
308.6928849618271
 30
0.0
 10
339.3070874015175
 20
308.5652878402907
 30
0.0
 10
339.3070874015175
 20
308.4094030857086
 30
0.0
 10
339.3070874015175
 20
308.4094030857086
 30
0.0
 10
339.3070874015175
 20
291.4015285968781
 30
0.0
 10
339.3070874015175
 20
291.4015285968781
 30
0.0
 10
339.3070874015175
 20
291.245643842296
 30
0.0
 10
339.4346628964231
 20
291.1180467207596
 30
0.0
 10
339.590569277636
 20
291.1180467207596
 30
0.0
 10
339.590569277636
 20
291.1180467207596
 30
0.0
 10
347.8110246459328
 20
291.1180467207596
 30
0.0
 10
347.8110246459328
 20
291.1180467207596
 30
0.0
 10
348.0945065220512
 20
291.1180467207596
 30
0.0
 10
347.8110246459328
 20
291.4015285968781
 30
0.0
 10
347.8110246459328
 20
291.1180467207596
 30
0.0
 10
347.8110246459328
 20
291.1180467207596
 30
0.0
 10
347.8110246459328
 20
274.6771359841659
 30
0.0
 10
347.8110246459328
 20
274.6771359841659
 30
0.0
 10
347.8110246459328
 20
274.3936541080475
 30
0.0
 10
348.0945065220512
 20
274.6771359841659
 30
0.0
 10
347.8110246459328
 20
274.6771359841659
 30
0.0
 10
347.8110246459328
 20
274.6771359841659
 30
0.0
 10
339.590569277636
 20
274.6771359841659
 30
0.0
 10
339.590569277636
 20
274.6771359841659
 30
0.0
 10
339.4346628964231
 20
274.6771359841659
 30
0.0
 10
339.3070874015175
 20
274.5495388626296
 30
0.0
 10
339.3070874015175
 20
274.3936541080475
 30
0.0
 10
339.3070874015175
 20
274.3936541080475
 30
0.0
 10
339.3070874015175
 20
257.3857796192169
 30
0.0
 10
339.3070874015175
 20
257.3857796192169
 30
0.0
 10
339.3070874015175
 20
257.2298948646349
 30
0.0
 10
339.4346628964231
 20
257.1022977430985
 30
0.0
 10
339.590569277636
 20
257.1022977430985
 30
0.0
 10
339.590569277636
 20
257.1022977430985
 30
0.0
 10
347.8110246459328
 20
257.1022977430985
 30
0.0
 10
347.8110246459328
 20
257.1022977430985
 30
0.0
 10
348.0945065220512
 20
257.1022977430985
 30
0.0
 10
347.8110246459328
 20
257.3857796192169
 30
0.0
 10
347.8110246459328
 20
257.1022977430985
 30
0.0
 10
347.8110246459328
 20
257.1022977430985
 30
0.0
 10
347.8110246459328
 20
240.6613870065048
 30
0.0
 10
347.8110246459328
 20
240.6613870065048
 30
0.0
 10
347.8110246459328
 20
240.3779051303863
 30
0.0
 10
348.0945065220512
 20
240.6613870065048
 30
0.0
 10
347.8110246459328
 20
240.6613870065048
 30
0.0
 10
347.8110246459328
 20
240.6613870065048
 30
0.0
 10
339.590569277636
 20
240.6613870065048
 30
0.0
 10
339.590569277636
 20
240.6613870065048
 30
0.0
 10
339.4346628964231
 20
240.6613870065048
 30
0.0
 10
339.3070874015175
 20
240.5337898849684
 30
0.0
 10
339.3070874015175
 20
240.3779051303863
 30
0.0
 10
339.3070874015175
 20
240.3779051303863
 30
0.0
 10
339.3070874015175
 20
223.3700306415558
 30
0.0
 10
339.3070874015175
 20
223.3700306415558
 30
0.0
 10
339.3070874015175
 20
223.2141458869737
 30
0.0
 10
339.4346628964231
 20
223.0865487654373
 30
0.0
 10
339.590569277636
 20
223.0865487654373
 30
0.0
 10
339.590569277636
 20
223.0865487654373
 30
0.0
 10
347.8110246459328
 20
223.0865487654373
 30
0.0
 10
347.8110246459328
 20
223.0865487654373
 30
0.0
 10
348.0945065220512
 20
223.0865487654373
 30
0.0
 10
347.8110246459328
 20
223.3700306415558
 30
0.0
 10
347.8110246459328
 20
223.0865487654373
 30
0.0
 10
347.8110246459328
 20
223.0865487654373
 30
0.0
 10
347.8110246459328
 20
206.6456380288437
 30
0.0
 10
347.8110246459328
 20
206.6456380288437
 30
0.0
 10
347.8110246459328
 20
206.3621561527252
 30
0.0
 10
348.0945065220512
 20
206.6456380288437
 30
0.0
 10
347.8110246459328
 20
206.6456380288437
 30
0.0
 10
347.8110246459328
 20
206.6456380288437
 30
0.0
 10
339.590569277636
 20
206.6456380288437
 30
0.0
 10
339.590569277636
 20
206.6456380288437
 30
0.0
 10
339.4346628964231
 20
206.6456380288437
 30
0.0
 10
339.3070874015175
 20
206.5180409073073
 30
0.0
 10
339.3070874015175
 20
206.3621561527252
 30
0.0
 10
339.3070874015175
 20
206.3621561527252
 30
0.0
 10
339.3070874015175
 20
189.3542816638946
 30
0.0
 10
339.3070874015175
 20
189.3542816638946
 30
0.0
 10
339.3070874015175
 20
189.1983969093125
 30
0.0
 10
339.4346628964231
 20
189.0707997877762
 30
0.0
 10
339.590569277636
 20
189.0707997877762
 30
0.0
 10
339.590569277636
 20
189.0707997877762
 30
0.0
 10
347.8110246459328
 20
189.0707997877762
 30
0.0
 10
347.8110246459328
 20
189.0707997877762
 30
0.0
 10
348.0945065220512
 20
189.0707997877762
 30
0.0
 10
347.8110246459328
 20
189.3542816638946
 30
0.0
 10
347.8110246459328
 20
189.0707997877762
 30
0.0
 10
347.8110246459328
 20
189.0707997877762
 30
0.0
 10
347.8110246459328
 20
172.6298890511825
 30
0.0
 10
347.8110246459328
 20
172.6298890511825
 30
0.0
 10
347.8110246459328
 20
172.3464071750641
 30
0.0
 10
348.0945065220512
 20
172.6298890511825
 30
0.0
 10
347.8110246459328
 20
172.6298890511825
 30
0.0
 10
347.8110246459328
 20
172.6298890511825
 30
0.0
 10
339.590569277636
 20
172.6298890511825
 30
0.0
 10
339.590569277636
 20
172.6298890511825
 30
0.0
 10
339.4346628964231
 20
172.6298890511825
 30
0.0
 10
339.3070874015175
 20
172.5022919296461
 30
0.0
 10
339.3070874015175
 20
172.3464071750641
 30
0.0
 10
339.3070874015175
 20
172.3464071750641
 30
0.0
 10
339.3070874015175
 20
155.3385326862335
 30
0.0
 10
339.3070874015175
 20
155.3385326862335
 30
0.0
 10
339.3070874015175
 20
155.1826479316514
 30
0.0
 10
339.4346628964231
 20
155.055050810115
 30
0.0
 10
339.590569277636
 20
155.055050810115
 30
0.0
 10
339.590569277636
 20
155.055050810115
 30
0.0
 10
347.8110246459328
 20
155.055050810115
 30
0.0
 10
347.8110246459328
 20
155.055050810115
 30
0.0
 10
348.0945065220512
 20
155.055050810115
 30
0.0
 10
347.8110246459328
 20
155.3385326862335
 30
0.0
 10
347.8110246459328
 20
155.055050810115
 30
0.0
 10
347.8110246459328
 20
155.055050810115
 30
0.0
 10
347.8110246459328
 20
138.6141400735214
 30
0.0
 10
347.8110246459328
 20
138.6141400735214
 30
0.0
 10
347.8110246459328
 20
138.3306581974029
 30
0.0
 10
348.0945065220512
 20
138.6141400735214
 30
0.0
 10
347.8110246459328
 20
138.6141400735214
 30
0.0
 10
347.8110246459328
 20
138.6141400735214
 30
0.0
 10
339.590569277636
 20
138.6141400735214
 30
0.0
 10
339.590569277636
 20
138.6141400735214
 30
0.0
 10
339.4346628964231
 20
138.6141400735214
 30
0.0
 10
339.3070874015175
 20
138.486542951985
 30
0.0
 10
339.3070874015175
 20
138.3306581974029
 30
0.0
 10
339.3070874015175
 20
138.3306581974029
 30
0.0
 10
339.3070874015175
 20
121.3227837085724
 30
0.0
 10
339.3070874015175
 20
121.3227837085724
 30
0.0
 10
339.3070874015175
 20
121.1668989539903
 30
0.0
 10
339.4346628964231
 20
121.0393018324539
 30
0.0
 10
339.590569277636
 20
121.0393018324539
 30
0.0
 10
339.590569277636
 20
121.0393018324539
 30
0.0
 10
347.8110246459328
 20
121.0393018324539
 30
0.0
 10
347.8110246459328
 20
121.0393018324539
 30
0.0
 10
348.0945065220512
 20
121.0393018324539
 30
0.0
 10
347.8110246459328
 20
121.3227837085724
 30
0.0
 10
347.8110246459328
 20
121.0393018324539
 30
0.0
 10
347.8110246459328
 20
121.0393018324539
 30
0.0
 10
347.8110246459328
 20
104.5983910958603
 30
0.0
 10
347.8110246459328
 20
104.5983910958603
 30
0.0
 10
347.8110246459328
 20
104.3149092197418
 30
0.0
 10
348.0945065220512
 20
104.5983910958603
 30
0.0
 10
347.8110246459328
 20
104.5983910958603
 30
0.0
 10
347.8110246459328
 20
104.5983910958603
 30
0.0
 10
339.590569277636
 20
104.5983910958603
 30
0.0
 10
339.590569277636
 20
104.5983910958603
 30
0.0
 10
339.4346628964231
 20
104.5983910958603
 30
0.0
 10
339.3070874015175
 20
104.4707939743239
 30
0.0
 10
339.3070874015175
 20
104.3149092197418
 30
0.0
 10
339.3070874015175
 20
104.3149092197418
 30
0.0
 10
339.3070874015175
 20
87.30703473091125
 30
0.0
 10
339.3070874015175
 20
87.30703473091125
 30
0.0
 10
339.3070874015175
 20
87.15114997632918
 30
0.0
 10
339.4346628964231
 20
87.0235528547928
 30
0.0
 10
339.590569277636
 20
87.0235528547928
 30
0.0
 10
339.590569277636
 20
87.0235528547928
 30
0.0
 10
347.8110246459328
 20
87.0235528547928
 30
0.0
 10
347.8110246459328
 20
87.0235528547928
 30
0.0
 10
348.0945065220512
 20
87.0235528547928
 30
0.0
 10
347.8110246459328
 20
87.30703473091125
 30
0.0
 10
347.8110246459328
 20
87.0235528547928
 30
0.0
 10
347.8110246459328
 20
87.0235528547928
 30
0.0
 10
347.8110246459328
 20
61.7952229976654
 30
0.0
 10
347.8110246459328
 20
61.7952229976654
 30
0.0
 10
347.8110246459328
 20
61.63933824308333
 30
0.0
 10
347.9386001408384
 20
61.51174112154695
 30
0.0
 10
348.0945065220512
 20
61.51174112154695
 30
0.0
  0
ENDBLK
  5
8E
330
8B
100
AcDbEntity
  8
0
100
AcDbBlockEnd
  0
BLOCK
  5
9A
330
98
100
AcDbEntity
  8
0
100
AcDbBlockBegin
  2
Block_3
 70
     0
 10
0.0
 20
0.0
 30
0.0
  3
Block_3
  1

  0
SPLINE
  5
9C
330
98
100
AcDbEntity
  8
svg38
 62
   250
420
  2299925
370
    20
100
AcDbSpline
210
0.0
220
0.0
230
1.0
 70
    11
 71
     3
 72
    32
 73
    28
 74
     0
 42
0.0000000001
 43
0.0000000001
 40
0.0
 40
0.0
 40
0.0
 40
0.0
 40
1.0
 40
1.0
 40
1.0
 40
2.0
 40
2.0
 40
2.0
 40
3.0
 40
3.0
 40
3.0
 40
4.0
 40
4.0
 40
4.0
 40
5.0
 40
5.0
 40
5.0
 40
6.0
 40
6.0
 40
6.0
 40
7.0
 40
7.0
 40
7.0
 40
8.0
 40
8.0
 40
8.0
 40
9.0
 40
9.0
 40
9.0
 40
9.0
 10
373.6063182552971
 20
347.5275230606712
 30
0.0
 10
373.6063182552971
 20
347.5275230606712
 30
0.0
 10
365.3858196337387
 20
347.5275230606712
 30
0.0
 10
365.3858196337387
 20
347.5275230606712
 30
0.0
 10
365.1023810108818
 20
347.5275230606712
 30
0.0
 10
365.3858196337387
 20
347.2440411845528
 30
0.0
 10
365.3858196337387
 20
347.5275230606712
 30
0.0
 10
365.3858196337387
 20
347.5275230606712
 30
0.0
 10
365.3858196337387
 20
355.4645398061111
 30
0.0
 10
365.3858196337387
 20
355.4645398061111
 30
0.0
 10
365.3858196337387
 20
355.7479784289681
 30
0.0
 10
365.1023810108818
 20
355.4645398061111
 30
0.0
 10
365.3858196337387
 20
355.4645398061111
 30
0.0
 10
365.3858196337387
 20
355.4645398061111
 30
0.0
 10
381.8267736235939
 20
355.4645398061111
 30
0.0
 10
381.8267736235939
 20
355.4645398061111
 30
0.0
 10
382.1102554997123
 20
355.4645398061111
 30
0.0
 10
381.8267736235939
 20
355.7479784289681
 30
0.0
 10
381.8267736235939
 20
355.4645398061111
 30
0.0
 10
381.8267736235939
 20
355.4645398061111
 30
0.0
 10
381.8267736235939
 20
347.5275230606712
 30
0.0
 10
381.8267736235939
 20
347.5275230606712
 30
0.0
 10
381.8267736235939
 20
347.2440411845528
 30
0.0
 10
382.1102554997123
 20
347.5275230606712
 30
0.0
 10
381.8267736235939
 20
347.5275230606712
 30
0.0
 10
381.8267736235939
 20
347.5275230606712
 30
0.0
 10
373.6063182552971
 20
347.5275230606712
 30
0.0
 10
373.6063182552971
 20
347.5275230606712
 30
0.0
  0
SPLINE
  5
9D
330
98
100
AcDbEntity
  8
svg38
 62
   250
420
  2299925
370
    20
100
AcDbSpline
210
0.0
220
0.0
230
1.0
 70
    11
 71
     3
 72
    32
 73
    28
 74
     0
 42
0.0000000001
 43
0.0000000001
 40
0.0
 40
0.0
 40
0.0
 40
0.0
 40
1.0
 40
1.0
 40
1.0
 40
2.0
 40
2.0
 40
2.0
 40
3.0
 40
3.0
 40
3.0
 40
4.0
 40
4.0
 40
4.0
 40
5.0
 40
5.0
 40
5.0
 40
6.0
 40
6.0
 40
6.0
 40
7.0
 40
7.0
 40
7.0
 40
8.0
 40
8.0
 40
8.0
 40
9.0
 40
9.0
 40
9.0
 40
9.0
 10
407.6220672329582
 20
347.5275230606712
 30
0.0
 10
407.6220672329582
 20
347.5275230606712
 30
0.0
 10
399.4015686113998
 20
347.5275230606712
 30
0.0
 10
399.4015686113998
 20
347.5275230606712
 30
0.0
 10
399.1181299885429
 20
347.5275230606712
 30
0.0
 10
399.4015686113998
 20
347.2440411845528
 30
0.0
 10
399.4015686113998
 20
347.5275230606712
 30
0.0
 10
399.4015686113998
 20
347.5275230606712
 30
0.0
 10
399.4015686113998
 20
355.4645398061111
 30
0.0
 10
399.4015686113998
 20
355.4645398061111
 30
0.0
 10
399.4015686113998
 20
355.7479784289681
 30
0.0
 10
399.1181299885429
 20
355.4645398061111
 30
0.0
 10
399.4015686113998
 20
355.4645398061111
 30
0.0
 10
399.4015686113998
 20
355.4645398061111
 30
0.0
 10
415.842522601255
 20
355.4645398061111
 30
0.0
 10
415.842522601255
 20
355.4645398061111
 30
0.0
 10
416.1260044773735
 20
355.4645398061111
 30
0.0
 10
415.842522601255
 20
355.7479784289681
 30
0.0
 10
415.842522601255
 20
355.4645398061111
 30
0.0
 10
415.842522601255
 20
355.4645398061111
 30
0.0
 10
415.842522601255
 20
347.5275230606712
 30
0.0
 10
415.842522601255
 20
347.5275230606712
 30
0.0
 10
415.842522601255
 20
347.2440411845528
 30
0.0
 10
416.1260044773735
 20
347.5275230606712
 30
0.0
 10
415.842522601255
 20
347.5275230606712
 30
0.0
 10
415.842522601255
 20
347.5275230606712
 30
0.0
 10
407.6220672329582
 20
347.5275230606712
 30
0.0
 10
407.6220672329582
 20
347.5275230606712
 30
0.0
  0
SPLINE
  5
9E
330
98
100
AcDbEntity
  8
svg38
 62
   250
420
  2299925
370
    20
100
AcDbSpline
210
0.0
220
0.0
230
1.0
 70
    11
 71
     3
 72
    32
 73
    28
 74
     0
 42
0.0000000001
 43
0.0000000001
 40
0.0
 40
0.0
 40
0.0
 40
0.0
 40
1.0
 40
1.0
 40
1.0
 40
2.0
 40
2.0
 40
2.0
 40
3.0
 40
3.0
 40
3.0
 40
4.0
 40
4.0
 40
4.0
 40
5.0
 40
5.0
 40
5.0
 40
6.0
 40
6.0
 40
6.0
 40
7.0
 40
7.0
 40
7.0
 40
8.0
 40
8.0
 40
8.0
 40
9.0
 40
9.0
 40
9.0
 40
9.0
 10
441.6378162106193
 20
347.5275230606712
 30
0.0
 10
441.6378162106193
 20
347.5275230606712
 30
0.0
 10
433.417317589061
 20
347.5275230606712
 30
0.0
 10
433.417317589061
 20
347.5275230606712
 30
0.0
 10
433.133878966204
 20
347.5275230606712
 30
0.0
 10
433.417317589061
 20
347.2440411845528
 30
0.0
 10
433.417317589061
 20
347.5275230606712
 30
0.0
 10
433.417317589061
 20
347.5275230606712
 30
0.0
 10
433.417317589061
 20
355.4645398061111
 30
0.0
 10
433.417317589061
 20
355.4645398061111
 30
0.0
 10
433.417317589061
 20
355.7479784289681
 30
0.0
 10
433.133878966204
 20
355.4645398061111
 30
0.0
 10
433.417317589061
 20
355.4645398061111
 30
0.0
 10
433.417317589061
 20
355.4645398061111
 30
0.0
 10
449.8582715789162
 20
355.4645398061111
 30
0.0
 10
449.8582715789162
 20
355.4645398061111
 30
0.0
 10
450.1417534550346
 20
355.4645398061111
 30
0.0
 10
449.8582715789162
 20
355.7479784289681
 30
0.0
 10
449.8582715789162
 20
355.4645398061111
 30
0.0
 10
449.8582715789162
 20
355.4645398061111
 30
0.0
 10
449.8582715789162
 20
347.5275230606712
 30
0.0
 10
449.8582715789162
 20
347.5275230606712
 30
0.0
 10
449.8582715789162
 20
347.2440411845528
 30
0.0
 10
450.1417534550346
 20
347.5275230606712
 30
0.0
 10
449.8582715789162
 20
347.5275230606712
 30
0.0
 10
449.8582715789162
 20
347.5275230606712
 30
0.0
 10
441.6378162106193
 20
347.5275230606712
 30
0.0
 10
441.6378162106193
 20
347.5275230606712
 30
0.0
  0
SPLINE
  5
9F
330
98
100
AcDbEntity
  8
svg38
 62
   250
420
  2299925
370
    20
100
AcDbSpline
210
0.0
220
0.0
230
1.0
 70
    11
 71
     3
 72
    32
 73
    28
 74
     0
 42
0.0000000001
 43
0.0000000001
 40
0.0
 40
0.0
 40
0.0
 40
0.0
 40
1.0
 40
1.0
 40
1.0
 40
2.0
 40
2.0
 40
2.0
 40
3.0
 40
3.0
 40
3.0
 40
4.0
 40
4.0
 40
4.0
 40
5.0
 40
5.0
 40
5.0
 40
6.0
 40
6.0
 40
6.0
 40
7.0
 40
7.0
 40
7.0
 40
8.0
 40
8.0
 40
8.0
 40
9.0
 40
9.0
 40
9.0
 40
9.0
 10
475.6535651882805
 20
347.5275230606712
 30
0.0
 10
475.6535651882805
 20
347.5275230606712
 30
0.0
 10
467.4330665667221
 20
347.5275230606712
 30
0.0
 10
467.4330665667221
 20
347.5275230606712
 30
0.0
 10
467.1496279438652
 20
347.5275230606712
 30
0.0
 10
467.4330665667221
 20
347.2440411845528
 30
0.0
 10
467.4330665667221
 20
347.5275230606712
 30
0.0
 10
467.4330665667221
 20
347.5275230606712
 30
0.0
 10
467.4330665667221
 20
355.4645398061111
 30
0.0
 10
467.4330665667221
 20
355.4645398061111
 30
0.0
 10
467.4330665667221
 20
355.7479784289681
 30
0.0
 10
467.1496279438652
 20
355.4645398061111
 30
0.0
 10
467.4330665667221
 20
355.4645398061111
 30
0.0
 10
467.4330665667221
 20
355.4645398061111
 30
0.0
 10
483.8740205565772
 20
355.4645398061111
 30
0.0
 10
483.8740205565772
 20
355.4645398061111
 30
0.0
 10
484.1575024326957
 20
355.4645398061111
 30
0.0
 10
483.8740205565772
 20
355.7479784289681
 30
0.0
 10
483.8740205565772
 20
355.4645398061111
 30
0.0
 10
483.8740205565772
 20
355.4645398061111
 30
0.0
 10
483.8740205565772
 20
347.5275230606712
 30
0.0
 10
483.8740205565772
 20
347.5275230606712
 30
0.0
 10
483.8740205565772
 20
347.2440411845528
 30
0.0
 10
484.1575024326957
 20
347.5275230606712
 30
0.0
 10
483.8740205565772
 20
347.5275230606712
 30
0.0
 10
483.8740205565772
 20
347.5275230606712
 30
0.0
 10
475.6535651882805
 20
347.5275230606712
 30
0.0
 10
475.6535651882805
 20
347.5275230606712
 30
0.0
  0
SPLINE
  5
A0
330
98
100
AcDbEntity
  8
svg38
 62
   250
420
  2299925
370
    20
100
AcDbSpline
210
0.0
220
0.0
230
1.0
 70
    11
 71
     3
 72
    32
 73
    28
 74
     0
 42
0.0000000001
 43
0.0000000001
 40
0.0
 40
0.0
 40
0.0
 40
0.0
 40
1.0
 40
1.0
 40
1.0
 40
2.0
 40
2.0
 40
2.0
 40
3.0
 40
3.0
 40
3.0
 40
4.0
 40
4.0
 40
4.0
 40
5.0
 40
5.0
 40
5.0
 40
6.0
 40
6.0
 40
6.0
 40
7.0
 40
7.0
 40
7.0
 40
8.0
 40
8.0
 40
8.0
 40
9.0
 40
9.0
 40
9.0
 40
9.0
 10
509.6693141659415
 20
347.5275230606712
 30
0.0
 10
509.6693141659415
 20
347.5275230606712
 30
0.0
 10
501.4488155443832
 20
347.5275230606712
 30
0.0
 10
501.4488155443832
 20
347.5275230606712
 30
0.0
 10
501.1653769215263
 20
347.5275230606712
 30
0.0
 10
501.4488155443832
 20
347.2440411845528
 30
0.0
 10
501.4488155443832
 20
347.5275230606712
 30
0.0
 10
501.4488155443832
 20
347.5275230606712
 30
0.0
 10
501.4488155443832
 20
355.4645398061111
 30
0.0
 10
501.4488155443832
 20
355.4645398061111
 30
0.0
 10
501.4488155443832
 20
355.7479784289681
 30
0.0
 10
501.1653769215263
 20
355.4645398061111
 30
0.0
 10
501.4488155443832
 20
355.4645398061111
 30
0.0
 10
501.4488155443832
 20
355.4645398061111
 30
0.0
 10
517.8897695342384
 20
355.4645398061111
 30
0.0
 10
517.8897695342384
 20
355.4645398061111
 30
0.0
 10
518.1732514103568
 20
355.4645398061111
 30
0.0
 10
517.8897695342384
 20
355.7479784289681
 30
0.0
 10
517.8897695342384
 20
355.4645398061111
 30
0.0
 10
517.8897695342384
 20
355.4645398061111
 30
0.0
 10
517.8897695342384
 20
347.5275230606712
 30
0.0
 10
517.8897695342384
 20
347.5275230606712
 30
0.0
 10
517.8897695342384
 20
347.2440411845528
 30
0.0
 10
518.1732514103568
 20
347.5275230606712
 30
0.0
 10
517.8897695342384
 20
347.5275230606712
 30
0.0
 10
517.8897695342384
 20
347.5275230606712
 30
0.0
 10
509.6693141659415
 20
347.5275230606712
 30
0.0
 10
509.6693141659415
 20
347.5275230606712
 30
0.0
  0
SPLINE
  5
A1
330
98
100
AcDbEntity
  8
svg38
 62
   250
420
  2299925
370
    20
100
AcDbSpline
210
0.0
220
0.0
230
1.0
 70
    11
 71
     3
 72
    32
 73
    28
 74
     0
 42
0.0000000001
 43
0.0000000001
 40
0.0
 40
0.0
 40
0.0
 40
0.0
 40
1.0
 40
1.0
 40
1.0
 40
2.0
 40
2.0
 40
2.0
 40
3.0
 40
3.0
 40
3.0
 40
4.0
 40
4.0
 40
4.0
 40
5.0
 40
5.0
 40
5.0
 40
6.0
 40
6.0
 40
6.0
 40
7.0
 40
7.0
 40
7.0
 40
8.0
 40
8.0
 40
8.0
 40
9.0
 40
9.0
 40
9.0
 40
9.0
 10
543.6850631436027
 20
347.5275230606712
 30
0.0
 10
543.6850631436027
 20
347.5275230606712
 30
0.0
 10
535.4645645220443
 20
347.5275230606712
 30
0.0
 10
535.4645645220443
 20
347.5275230606712
 30
0.0
 10
535.1811258991874
 20
347.5275230606712
 30
0.0
 10
535.4645645220443
 20
347.2440411845528
 30
0.0
 10
535.4645645220443
 20
347.5275230606712
 30
0.0
 10
535.4645645220443
 20
347.5275230606712
 30
0.0
 10
535.4645645220443
 20
355.4645398061111
 30
0.0
 10
535.4645645220443
 20
355.4645398061111
 30
0.0
 10
535.4645645220443
 20
355.7479784289681
 30
0.0
 10
535.1811258991874
 20
355.4645398061111
 30
0.0
 10
535.4645645220443
 20
355.4645398061111
 30
0.0
 10
535.4645645220443
 20
355.4645398061111
 30
0.0
 10
551.9055185118995
 20
355.4645398061111
 30
0.0
 10
551.9055185118995
 20
355.4645398061111
 30
0.0
 10
552.189000388018
 20
355.4645398061111
 30
0.0
 10
551.9055185118995
 20
355.7479784289681
 30
0.0
 10
551.9055185118995
 20
355.4645398061111
 30
0.0
 10
551.9055185118995
 20
355.4645398061111
 30
0.0
 10
551.9055185118995
 20
347.5275230606712
 30
0.0
 10
551.9055185118995
 20
347.5275230606712
 30
0.0
 10
551.9055185118995
 20
347.2440411845528
 30
0.0
 10
552.189000388018
 20
347.5275230606712
 30
0.0
 10
551.9055185118995
 20
347.5275230606712
 30
0.0
 10
551.9055185118995
 20
347.5275230606712
 30
0.0
 10
543.6850631436027
 20
347.5275230606712
 30
0.0
 10
543.6850631436027
 20
347.5275230606712
 30
0.0
  0
SPLINE
  5
A2
330
98
100
AcDbEntity
  8
svg38
 62
   250
420
  2299925
370
    20
100
AcDbSpline
210
0.0
220
0.0
230
1.0
 70
    11
 71
     3
 72
    32
 73
    28
 74
     0
 42
0.0000000001
 43
0.0000000001
 40
0.0
 40
0.0
 40
0.0
 40
0.0
 40
1.0
 40
1.0
 40
1.0
 40
2.0
 40
2.0
 40
2.0
 40
3.0
 40
3.0
 40
3.0
 40
4.0
 40
4.0
 40
4.0
 40
5.0
 40
5.0
 40
5.0
 40
6.0
 40
6.0
 40
6.0
 40
7.0
 40
7.0
 40
7.0
 40
8.0
 40
8.0
 40
8.0
 40
9.0
 40
9.0
 40
9.0
 40
9.0
 10
577.7008121212638
 20
347.5275230606712
 30
0.0
 10
577.7008121212638
 20
347.5275230606712
 30
0.0
 10
569.4803134997055
 20
347.5275230606712
 30
0.0
 10
569.4803134997055
 20
347.5275230606712
 30
0.0
 10
569.1968748768486
 20
347.5275230606712
 30
0.0
 10
569.4803134997055
 20
347.2440411845528
 30
0.0
 10
569.4803134997055
 20
347.5275230606712
 30
0.0
 10
569.4803134997055
 20
347.5275230606712
 30
0.0
 10
569.4803134997055
 20
355.4645398061111
 30
0.0
 10
569.4803134997055
 20
355.4645398061111
 30
0.0
 10
569.4803134997055
 20
355.7479784289681
 30
0.0
 10
569.1968748768486
 20
355.4645398061111
 30
0.0
 10
569.4803134997055
 20
355.4645398061111
 30
0.0
 10
569.4803134997055
 20
355.4645398061111
 30
0.0
 10
585.9212674895607
 20
355.4645398061111
 30
0.0
 10
585.9212674895607
 20
355.4645398061111
 30
0.0
 10
586.2047493656791
 20
355.4645398061111
 30
0.0
 10
585.9212674895607
 20
355.7479784289681
 30
0.0
 10
585.9212674895607
 20
355.4645398061111
 30
0.0
 10
585.9212674895607
 20
355.4645398061111
 30
0.0
 10
585.9212674895607
 20
347.5275230606712
 30
0.0
 10
585.9212674895607
 20
347.5275230606712
 30
0.0
 10
585.9212674895607
 20
347.2440411845528
 30
0.0
 10
586.2047493656791
 20
347.5275230606712
 30
0.0
 10
585.9212674895607
 20
347.5275230606712
 30
0.0
 10
585.9212674895607
 20
347.5275230606712
 30
0.0
 10
577.7008121212638
 20
347.5275230606712
 30
0.0
 10
577.7008121212638
 20
347.5275230606712
 30
0.0
  0
SPLINE
  5
A3
330
98
100
AcDbEntity
  8
svg38
 62
   250
420
  2299925
370
    20
100
AcDbSpline
210
0.0
220
0.0
230
1.0
 70
    11
 71
     3
 72
    32
 73
    28
 74
     0
 42
0.0000000001
 43
0.0000000001
 40
0.0
 40
0.0
 40
0.0
 40
0.0
 40
1.0
 40
1.0
 40
1.0
 40
2.0
 40
2.0
 40
2.0
 40
3.0
 40
3.0
 40
3.0
 40
4.0
 40
4.0
 40
4.0
 40
5.0
 40
5.0
 40
5.0
 40
6.0
 40
6.0
 40
6.0
 40
7.0
 40
7.0
 40
7.0
 40
8.0
 40
8.0
 40
8.0
 40
9.0
 40
9.0
 40
9.0
 40
9.0
 10
611.716561098925
 20
347.5275230606712
 30
0.0
 10
611.716561098925
 20
347.5275230606712
 30
0.0
 10
603.4960624773666
 20
347.5275230606712
 30
0.0
 10
603.4960624773666
 20
347.5275230606712
 30
0.0
 10
603.2126238545097
 20
347.5275230606712
 30
0.0
 10
603.4960624773666
 20
347.2440411845528
 30
0.0
 10
603.4960624773666
 20
347.5275230606712
 30
0.0
 10
603.4960624773666
 20
347.5275230606712
 30
0.0
 10
603.4960624773666
 20
355.4645398061111
 30
0.0
 10
603.4960624773666
 20
355.4645398061111
 30
0.0
 10
603.4960624773666
 20
355.7479784289681
 30
0.0
 10
603.2126238545097
 20
355.4645398061111
 30
0.0
 10
603.4960624773666
 20
355.4645398061111
 30
0.0
 10
603.4960624773666
 20
355.4645398061111
 30
0.0
 10
619.9370164672218
 20
355.4645398061111
 30
0.0
 10
619.9370164672218
 20
355.4645398061111
 30
0.0
 10
620.2204983433403
 20
355.4645398061111
 30
0.0
 10
619.9370164672218
 20
355.7479784289681
 30
0.0
 10
619.9370164672218
 20
355.4645398061111
 30
0.0
 10
619.9370164672218
 20
355.4645398061111
 30
0.0
 10
619.9370164672218
 20
347.5275230606712
 30
0.0
 10
619.9370164672218
 20
347.5275230606712
 30
0.0
 10
619.9370164672218
 20
347.2440411845528
 30
0.0
 10
620.2204983433403
 20
347.5275230606712
 30
0.0
 10
619.9370164672218
 20
347.5275230606712
 30
0.0
 10
619.9370164672218
 20
347.5275230606712
 30
0.0
 10
611.716561098925
 20
347.5275230606712
 30
0.0
 10
611.716561098925
 20
347.5275230606712
 30
0.0
  0
SPLINE
  5
A4
330
98
100
AcDbEntity
  8
svg38
 62
   250
420
  2299925
370
    20
100
AcDbSpline
210
0.0
220
0.0
230
1.0
 70
     9
 71
     3
 72
   365
 73
   361
 74
     0
 42
0.0000000001
 43
0.0000000001
 40
0.0
 40
0.0
 40
0.0
 40
0.0
 40
1.0
 40
1.0
 40
1.0
 40
2.0
 40
2.0
 40
2.0
 40
3.0
 40
3.0
 40
3.0
 40
4.0
 40
4.0
 40
4.0
 40
5.0
 40
5.0
 40
5.0
 40
6.0
 40
6.0
 40
6.0
 40
7.0
 40
7.0
 40
7.0
 40
8.0
 40
8.0
 40
8.0
 40
9.0
 40
9.0
 40
9.0
 40
10.0
 40
10.0
 40
10.0
 40
11.0
 40
11.0
 40
11.0
 40
12.0
 40
12.0
 40
12.0
 40
13.0
 40
13.0
 40
13.0
 40
14.0
 40
14.0
 40
14.0
 40
15.0
 40
15.0
 40
15.0
 40
16.0
 40
16.0
 40
16.0
 40
17.0
 40
17.0
 40
17.0
 40
18.0
 40
18.0
 40
18.0
 40
19.0
 40
19.0
 40
19.0
 40
20.0
 40
20.0
 40
20.0
 40
21.0
 40
21.0
 40
21.0
 40
22.0
 40
22.0
 40
22.0
 40
23.0
 40
23.0
 40
23.0
 40
24.0
 40
24.0
 40
24.0
 40
25.0
 40
25.0
 40
25.0
 40
26.0
 40
26.0
 40
26.0
 40
27.0
 40
27.0
 40
27.0
 40
28.0
 40
28.0
 40
28.0
 40
29.0
 40
29.0
 40
29.0
 40
30.0
 40
30.0
 40
30.0
 40
31.0
 40
31.0
 40
31.0
 40
32.0
 40
32.0
 40
32.0
 40
33.0
 40
33.0
 40
33.0
 40
34.0
 40
34.0
 40
34.0
 40
35.0
 40
35.0
 40
35.0
 40
36.0
 40
36.0
 40
36.0
 40
37.0
 40
37.0
 40
37.0
 40
38.0
 40
38.0
 40
38.0
 40
39.0
 40
39.0
 40
39.0
 40
40.0
 40
40.0
 40
40.0
 40
41.0
 40
41.0
 40
41.0
 40
42.0
 40
42.0
 40
42.0
 40
43.0
 40
43.0
 40
43.0
 40
44.0
 40
44.0
 40
44.0
 40
45.0
 40
45.0
 40
45.0
 40
46.0
 40
46.0
 40
46.0
 40
47.0
 40
47.0
 40
47.0
 40
48.0
 40
48.0
 40
48.0
 40
49.0
 40
49.0
 40
49.0
 40
50.0
 40
50.0
 40
50.0
 40
51.0
 40
51.0
 40
51.0
 40
52.0
 40
52.0
 40
52.0
 40
53.0
 40
53.0
 40
53.0
 40
54.0
 40
54.0
 40
54.0
 40
55.0
 40
55.0
 40
55.0
 40
56.0
 40
56.0
 40
56.0
 40
57.0
 40
57.0
 40
57.0
 40
58.0
 40
58.0
 40
58.0
 40
59.0
 40
59.0
 40
59.0
 40
60.0
 40
60.0
 40
60.0
 40
61.0
 40
61.0
 40
61.0
 40
62.0
 40
62.0
 40
62.0
 40
63.0
 40
63.0
 40
63.0
 40
64.0
 40
64.0
 40
64.0
 40
65.0
 40
65.0
 40
65.0
 40
66.0
 40
66.0
 40
66.0
 40
67.0
 40
67.0
 40
67.0
 40
68.0
 40
68.0
 40
68.0
 40
69.0
 40
69.0
 40
69.0
 40
70.0
 40
70.0
 40
70.0
 40
71.0
 40
71.0
 40
71.0
 40
72.0
 40
72.0
 40
72.0
 40
73.0
 40
73.0
 40
73.0
 40
74.0
 40
74.0
 40
74.0
 40
75.0
 40
75.0
 40
75.0
 40
76.0
 40
76.0
 40
76.0
 40
77.0
 40
77.0
 40
77.0
 40
78.0
 40
78.0
 40
78.0
 40
79.0
 40
79.0
 40
79.0
 40
80.0
 40
80.0
 40
80.0
 40
81.0
 40
81.0
 40
81.0
 40
82.0
 40
82.0
 40
82.0
 40
83.0
 40
83.0
 40
83.0
 40
84.0
 40
84.0
 40
84.0
 40
85.0
 40
85.0
 40
85.0
 40
86.0
 40
86.0
 40
86.0
 40
87.0
 40
87.0
 40
87.0
 40
88.0
 40
88.0
 40
88.0
 40
89.0
 40
89.0
 40
89.0
 40
90.0
 40
90.0
 40
90.0
 40
91.0
 40
91.0
 40
91.0
 40
92.0
 40
92.0
 40
92.0
 40
93.0
 40
93.0
 40
93.0
 40
94.0
 40
94.0
 40
94.0
 40
95.0
 40
95.0
 40
95.0
 40
96.0
 40
96.0
 40
96.0
 40
97.0
 40
97.0
 40
97.0
 40
98.0
 40
98.0
 40
98.0
 40
99.0
 40
99.0
 40
99.0
 40
100.0
 40
100.0
 40
100.0
 40
101.0
 40
101.0
 40
101.0
 40
102.0
 40
102.0
 40
102.0
 40
103.0
 40
103.0
 40
103.0
 40
104.0
 40
104.0
 40
104.0
 40
105.0
 40
105.0
 40
105.0
 40
106.0
 40
106.0
 40
106.0
 40
107.0
 40
107.0
 40
107.0
 40
108.0
 40
108.0
 40
108.0
 40
109.0
 40
109.0
 40
109.0
 40
110.0
 40
110.0
 40
110.0
 40
111.0
 40
111.0
 40
111.0
 40
112.0
 40
112.0
 40
112.0
 40
113.0
 40
113.0
 40
113.0
 40
114.0
 40
114.0
 40
114.0
 40
115.0
 40
115.0
 40
115.0
 40
116.0
 40
116.0
 40
116.0
 40
117.0
 40
117.0
 40
117.0
 40
118.0
 40
118.0
 40
118.0
 40
119.0
 40
119.0
 40
119.0
 40
120.0
 40
120.0
 40
120.0
 40
120.0
 10
348.0945065220512
 20
338.4566653172806
 30
0.0
 10
348.0945065220512
 20
338.4566653172806
 30
0.0
 10
637.2283728321709
 20
338.4566653172806
 30
0.0
 10
637.2283728321709
 20
338.4566653172806
 30
0.0
 10
637.3842575867529
 20
338.4566653172806
 30
0.0
 10
637.5118114550278
 20
338.5842191855554
 30
0.0
 10
637.5118114550278
 20
338.7401039401375
 30
0.0
 10
637.5118114550278
 20
338.7401039401375
 30
0.0
 10
637.5118114550278
 20
363.9684770505264
 30
0.0
 10
637.5118114550278
 20
363.9684770505264
 30
0.0
 10
637.5118114550278
 20
364.2519156733833
 30
0.0
 10
637.2283728321709
 20
363.9684770505264
 30
0.0
 10
637.5118114550278
 20
363.9684770505264
 30
0.0
 10
637.5118114550278
 20
363.9684770505264
 30
0.0
 10
645.7323100765862
 20
363.9684770505264
 30
0.0
 10
645.7323100765862
 20
363.9684770505264
 30
0.0
 10
645.8881948311682
 20
363.9684770505264
 30
0.0
 10
646.0157486994431
 20
364.0960309188013
 30
0.0
 10
646.0157486994431
 20
364.2519156733833
 30
0.0
 10
646.0157486994431
 20
364.2519156733833
 30
0.0
 10
646.0157486994431
 20
381.2597901622139
 30
0.0
 10
646.0157486994431
 20
381.2597901622139
 30
0.0
 10
646.0157486994431
 20
381.4157181700575
 30
0.0
 10
645.8881948311682
 20
381.5432720383324
 30
0.0
 10
645.7323100765862
 20
381.5432720383324
 30
0.0
 10
645.7323100765862
 20
381.5432720383324
 30
0.0
 10
637.5118114550278
 20
381.5432720383324
 30
0.0
 10
637.5118114550278
 20
381.5432720383324
 30
0.0
 10
637.2283728321709
 20
381.5432720383324
 30
0.0
 10
637.5118114550278
 20
381.2597901622139
 30
0.0
 10
637.5118114550278
 20
381.5432720383324
 30
0.0
 10
637.5118114550278
 20
381.5432720383324
 30
0.0
 10
637.5118114550278
 20
397.9842260281876
 30
0.0
 10
637.5118114550278
 20
397.9842260281876
 30
0.0
 10
637.5118114550278
 20
398.2676646510445
 30
0.0
 10
637.2283728321709
 20
397.9842260281876
 30
0.0
 10
637.5118114550278
 20
397.9842260281876
 30
0.0
 10
637.5118114550278
 20
397.9842260281876
 30
0.0
 10
645.7323100765862
 20
397.9842260281876
 30
0.0
 10
645.7323100765862
 20
397.9842260281876
 30
0.0
 10
645.8881948311682
 20
397.9842260281876
 30
0.0
 10
646.0157486994431
 20
398.1117798964624
 30
0.0
 10
646.0157486994431
 20
398.2676646510445
 30
0.0
 10
646.0157486994431
 20
398.2676646510445
 30
0.0
 10
646.0157486994431
 20
415.275539139875
 30
0.0
 10
646.0157486994431
 20
415.275539139875
 30
0.0
 10
646.0157486994431
 20
415.4314671477186
 30
0.0
 10
645.8881948311682
 20
415.5590210159934
 30
0.0
 10
645.7323100765862
 20
415.5590210159934
 30
0.0
 10
645.7323100765862
 20
415.5590210159934
 30
0.0
 10
637.5118114550278
 20
415.5590210159934
 30
0.0
 10
637.5118114550278
 20
415.5590210159934
 30
0.0
 10
637.2283728321709
 20
415.5590210159934
 30
0.0
 10
637.5118114550278
 20
415.275539139875
 30
0.0
 10
637.5118114550278
 20
415.5590210159934
 30
0.0
 10
637.5118114550278
 20
415.5590210159934
 30
0.0
 10
637.5118114550278
 20
431.9999750058486
 30
0.0
 10
637.5118114550278
 20
431.9999750058486
 30
0.0
 10
637.5118114550278
 20
432.2834136287055
 30
0.0
 10
637.2283728321709
 20
431.9999750058486
 30
0.0
 10
637.5118114550278
 20
431.9999750058486
 30
0.0
 10
637.5118114550278
 20
431.9999750058486
 30
0.0
 10
645.7323100765862
 20
431.9999750058486
 30
0.0
 10
645.7323100765862
 20
431.9999750058486
 30
0.0
 10
645.8881948311682
 20
431.9999750058486
 30
0.0
 10
646.0157486994431
 20
432.1275288741235
 30
0.0
 10
646.0157486994431
 20
432.2834136287055
 30
0.0
 10
646.0157486994431
 20
432.2834136287055
 30
0.0
 10
646.0157486994431
 20
449.2912881175361
 30
0.0
 10
646.0157486994431
 20
449.2912881175361
 30
0.0
 10
646.0157486994431
 20
449.4472161253797
 30
0.0
 10
645.8881948311682
 20
449.5747699936546
 30
0.0
 10
645.7323100765862
 20
449.5747699936546
 30
0.0
 10
645.7323100765862
 20
449.5747699936546
 30
0.0
 10
637.5118114550278
 20
449.5747699936546
 30
0.0
 10
637.5118114550278
 20
449.5747699936546
 30
0.0
 10
637.2283728321709
 20
449.5747699936546
 30
0.0
 10
637.5118114550278
 20
449.2912881175361
 30
0.0
 10
637.5118114550278
 20
449.5747699936546
 30
0.0
 10
637.5118114550278
 20
449.5747699936546
 30
0.0
 10
637.5118114550278
 20
466.0157239835098
 30
0.0
 10
637.5118114550278
 20
466.0157239835098
 30
0.0
 10
637.5118114550278
 20
466.2991626063667
 30
0.0
 10
637.2283728321709
 20
466.0157239835098
 30
0.0
 10
637.5118114550278
 20
466.0157239835098
 30
0.0
 10
637.5118114550278
 20
466.0157239835098
 30
0.0
 10
645.7323100765862
 20
466.0157239835098
 30
0.0
 10
645.7323100765862
 20
466.0157239835098
 30
0.0
 10
645.8881948311682
 20
466.0157239835098
 30
0.0
 10
646.0157486994431
 20
466.1432778517847
 30
0.0
 10
646.0157486994431
 20
466.2991626063667
 30
0.0
 10
646.0157486994431
 20
466.2991626063667
 30
0.0
 10
646.0157486994431
 20
483.3070370951973
 30
0.0
 10
646.0157486994431
 20
483.3070370951973
 30
0.0
 10
646.0157486994431
 20
483.4629651030409
 30
0.0
 10
645.8881948311682
 20
483.5905189713157
 30
0.0
 10
645.7323100765862
 20
483.5905189713157
 30
0.0
 10
645.7323100765862
 20
483.5905189713157
 30
0.0
 10
637.5118114550278
 20
483.5905189713157
 30
0.0
 10
637.5118114550278
 20
483.5905189713157
 30
0.0
 10
637.2283728321709
 20
483.5905189713157
 30
0.0
 10
637.5118114550278
 20
483.3070370951973
 30
0.0
 10
637.5118114550278
 20
483.5905189713157
 30
0.0
 10
637.5118114550278
 20
483.5905189713157
 30
0.0
 10
637.5118114550278
 20
500.0314729611709
 30
0.0
 10
637.5118114550278
 20
500.0314729611709
 30
0.0
 10
637.5118114550278
 20
500.3149115840279
 30
0.0
 10
637.2283728321709
 20
500.0314729611709
 30
0.0
 10
637.5118114550278
 20
500.0314729611709
 30
0.0
 10
637.5118114550278
 20
500.0314729611709
 30
0.0
 10
645.7323100765862
 20
500.0314729611709
 30
0.0
 10
645.7323100765862
 20
500.0314729611709
 30
0.0
 10
645.8881948311682
 20
500.0314729611709
 30
0.0
 10
646.0157486994431
 20
500.1590268294457
 30
0.0
 10
646.0157486994431
 20
500.3149115840279
 30
0.0
 10
646.0157486994431
 20
500.3149115840279
 30
0.0
 10
646.0157486994431
 20
517.3227860728584
 30
0.0
 10
646.0157486994431
 20
517.3227860728584
 30
0.0
 10
646.0157486994431
 20
517.478714080702
 30
0.0
 10
645.8881948311682
 20
517.6062679489769
 30
0.0
 10
645.7323100765862
 20
517.6062679489769
 30
0.0
 10
645.7323100765862
 20
517.6062679489769
 30
0.0
 10
637.5118114550278
 20
517.6062679489769
 30
0.0
 10
637.5118114550278
 20
517.6062679489769
 30
0.0
 10
637.2283728321709
 20
517.6062679489769
 30
0.0
 10
637.5118114550278
 20
517.3227860728584
 30
0.0
 10
637.5118114550278
 20
517.6062679489769
 30
0.0
 10
637.5118114550278
 20
517.6062679489769
 30
0.0
 10
637.5118114550278
 20
534.047221938832
 30
0.0
 10
637.5118114550278
 20
534.047221938832
 30
0.0
 10
637.5118114550278
 20
534.330660561689
 30
0.0
 10
637.2283728321709
 20
534.047221938832
 30
0.0
 10
637.5118114550278
 20
534.047221938832
 30
0.0
 10
637.5118114550278
 20
534.047221938832
 30
0.0
 10
645.7323100765862
 20
534.047221938832
 30
0.0
 10
645.7323100765862
 20
534.047221938832
 30
0.0
 10
645.8881948311682
 20
534.047221938832
 30
0.0
 10
646.0157486994431
 20
534.1747758071069
 30
0.0
 10
646.0157486994431
 20
534.330660561689
 30
0.0
 10
646.0157486994431
 20
534.330660561689
 30
0.0
 10
646.0157486994431
 20
551.3385350505195
 30
0.0
 10
646.0157486994431
 20
551.3385350505195
 30
0.0
 10
646.0157486994431
 20
551.4944630583632
 30
0.0
 10
645.8881948311682
 20
551.622016926638
 30
0.0
 10
645.7323100765862
 20
551.622016926638
 30
0.0
 10
645.7323100765862
 20
551.622016926638
 30
0.0
 10
637.5118114550278
 20
551.622016926638
 30
0.0
 10
637.5118114550278
 20
551.622016926638
 30
0.0
 10
637.2283728321709
 20
551.622016926638
 30
0.0
 10
637.5118114550278
 20
551.3385350505195
 30
0.0
 10
637.5118114550278
 20
551.622016926638
 30
0.0
 10
637.5118114550278
 20
551.622016926638
 30
0.0
 10
637.5118114550278
 20
568.0629709164931
 30
0.0
 10
637.5118114550278
 20
568.0629709164931
 30
0.0
 10
637.5118114550278
 20
568.3464095393501
 30
0.0
 10
637.2283728321709
 20
568.0629709164931
 30
0.0
 10
637.5118114550278
 20
568.0629709164931
 30
0.0
 10
637.5118114550278
 20
568.0629709164931
 30
0.0
 10
645.7323100765862
 20
568.0629709164931
 30
0.0
 10
645.7323100765862
 20
568.0629709164931
 30
0.0
 10
645.8881948311682
 20
568.0629709164931
 30
0.0
 10
646.0157486994431
 20
568.190524784768
 30
0.0
 10
646.0157486994431
 20
568.3464095393501
 30
0.0
 10
646.0157486994431
 20
568.3464095393501
 30
0.0
 10
646.0157486994431
 20
585.3542840281806
 30
0.0
 10
646.0157486994431
 20
585.3542840281806
 30
0.0
 10
646.0157486994431
 20
585.5102120360243
 30
0.0
 10
645.8881948311682
 20
585.6377659042991
 30
0.0
 10
645.7323100765862
 20
585.6377659042991
 30
0.0
 10
645.7323100765862
 20
585.6377659042991
 30
0.0
 10
637.5118114550278
 20
585.6377659042991
 30
0.0
 10
637.5118114550278
 20
585.6377659042991
 30
0.0
 10
637.2283728321709
 20
585.6377659042991
 30
0.0
 10
637.5118114550278
 20
585.3542840281806
 30
0.0
 10
637.5118114550278
 20
585.6377659042991
 30
0.0
 10
637.5118114550278
 20
585.6377659042991
 30
0.0
 10
637.5118114550278
 20
610.8660957614265
 30
0.0
 10
637.5118114550278
 20
610.8660957614265
 30
0.0
 10
637.5118114550278
 20
611.0220021426393
 30
0.0
 10
637.3842575867529
 20
611.1495776375449
 30
0.0
 10
637.2283728321709
 20
611.1495776375449
 30
0.0
 10
637.2283728321709
 20
611.1495776375449
 30
0.0
 10
348.0945065220512
 20
611.1495776375449
 30
0.0
 10
348.0945065220512
 20
611.1495776375449
 30
0.0
 10
347.9386001408384
 20
611.1495776375449
 30
0.0
 10
347.8110246459328
 20
611.0220021426393
 30
0.0
 10
347.8110246459328
 20
610.8660957614265
 30
0.0
 10
347.8110246459328
 20
610.8660957614265
 30
0.0
 10
347.8110246459328
 20
585.6377659042991
 30
0.0
 10
347.8110246459328
 20
585.6377659042991
 30
0.0
 10
347.8110246459328
 20
585.3542840281806
 30
0.0
 10
348.0945065220512
 20
585.6377659042991
 30
0.0
 10
347.8110246459328
 20
585.6377659042991
 30
0.0
 10
347.8110246459328
 20
585.6377659042991
 30
0.0
 10
339.590569277636
 20
585.6377659042991
 30
0.0
 10
339.590569277636
 20
585.6377659042991
 30
0.0
 10
339.4346628964231
 20
585.6377659042991
 30
0.0
 10
339.3070874015175
 20
585.5102120360243
 30
0.0
 10
339.3070874015175
 20
585.3542840281806
 30
0.0
 10
339.3070874015175
 20
585.3542840281806
 30
0.0
 10
339.3070874015175
 20
568.3464095393501
 30
0.0
 10
339.3070874015175
 20
568.3464095393501
 30
0.0
 10
339.3070874015175
 20
568.190524784768
 30
0.0
 10
339.4346628964231
 20
568.0629709164931
 30
0.0
 10
339.590569277636
 20
568.0629709164931
 30
0.0
 10
339.590569277636
 20
568.0629709164931
 30
0.0
 10
347.8110246459328
 20
568.0629709164931
 30
0.0
 10
347.8110246459328
 20
568.0629709164931
 30
0.0
 10
348.0945065220512
 20
568.0629709164931
 30
0.0
 10
347.8110246459328
 20
568.3464095393501
 30
0.0
 10
347.8110246459328
 20
568.0629709164931
 30
0.0
 10
347.8110246459328
 20
568.0629709164931
 30
0.0
 10
347.8110246459328
 20
551.622016926638
 30
0.0
 10
347.8110246459328
 20
551.622016926638
 30
0.0
 10
347.8110246459328
 20
551.3385350505195
 30
0.0
 10
348.0945065220512
 20
551.622016926638
 30
0.0
 10
347.8110246459328
 20
551.622016926638
 30
0.0
 10
347.8110246459328
 20
551.622016926638
 30
0.0
 10
339.590569277636
 20
551.622016926638
 30
0.0
 10
339.590569277636
 20
551.622016926638
 30
0.0
 10
339.4346628964231
 20
551.622016926638
 30
0.0
 10
339.3070874015175
 20
551.4944630583632
 30
0.0
 10
339.3070874015175
 20
551.3385350505195
 30
0.0
 10
339.3070874015175
 20
551.3385350505195
 30
0.0
 10
339.3070874015175
 20
534.330660561689
 30
0.0
 10
339.3070874015175
 20
534.330660561689
 30
0.0
 10
339.3070874015175
 20
534.1747758071069
 30
0.0
 10
339.4346628964231
 20
534.047221938832
 30
0.0
 10
339.590569277636
 20
534.047221938832
 30
0.0
 10
339.590569277636
 20
534.047221938832
 30
0.0
 10
347.8110246459328
 20
534.047221938832
 30
0.0
 10
347.8110246459328
 20
534.047221938832
 30
0.0
 10
348.0945065220512
 20
534.047221938832
 30
0.0
 10
347.8110246459328
 20
534.330660561689
 30
0.0
 10
347.8110246459328
 20
534.047221938832
 30
0.0
 10
347.8110246459328
 20
534.047221938832
 30
0.0
 10
347.8110246459328
 20
517.6062679489769
 30
0.0
 10
347.8110246459328
 20
517.6062679489769
 30
0.0
 10
347.8110246459328
 20
517.3227860728584
 30
0.0
 10
348.0945065220512
 20
517.6062679489769
 30
0.0
 10
347.8110246459328
 20
517.6062679489769
 30
0.0
 10
347.8110246459328
 20
517.6062679489769
 30
0.0
 10
339.590569277636
 20
517.6062679489769
 30
0.0
 10
339.590569277636
 20
517.6062679489769
 30
0.0
 10
339.4346628964231
 20
517.6062679489769
 30
0.0
 10
339.3070874015175
 20
517.478714080702
 30
0.0
 10
339.3070874015175
 20
517.3227860728584
 30
0.0
 10
339.3070874015175
 20
517.3227860728584
 30
0.0
 10
339.3070874015175
 20
500.3149115840279
 30
0.0
 10
339.3070874015175
 20
500.3149115840279
 30
0.0
 10
339.3070874015175
 20
500.1590268294457
 30
0.0
 10
339.4346628964231
 20
500.0314729611709
 30
0.0
 10
339.590569277636
 20
500.0314729611709
 30
0.0
 10
339.590569277636
 20
500.0314729611709
 30
0.0
 10
347.8110246459328
 20
500.0314729611709
 30
0.0
 10
347.8110246459328
 20
500.0314729611709
 30
0.0
 10
348.0945065220512
 20
500.0314729611709
 30
0.0
 10
347.8110246459328
 20
500.3149115840279
 30
0.0
 10
347.8110246459328
 20
500.0314729611709
 30
0.0
 10
347.8110246459328
 20
500.0314729611709
 30
0.0
 10
347.8110246459328
 20
483.5905189713157
 30
0.0
 10
347.8110246459328
 20
483.5905189713157
 30
0.0
 10
347.8110246459328
 20
483.3070370951973
 30
0.0
 10
348.0945065220512
 20
483.5905189713157
 30
0.0
 10
347.8110246459328
 20
483.5905189713157
 30
0.0
 10
347.8110246459328
 20
483.5905189713157
 30
0.0
 10
339.590569277636
 20
483.5905189713157
 30
0.0
 10
339.590569277636
 20
483.5905189713157
 30
0.0
 10
339.4346628964231
 20
483.5905189713157
 30
0.0
 10
339.3070874015175
 20
483.4629651030409
 30
0.0
 10
339.3070874015175
 20
483.3070370951973
 30
0.0
 10
339.3070874015175
 20
483.3070370951973
 30
0.0
 10
339.3070874015175
 20
466.2991626063667
 30
0.0
 10
339.3070874015175
 20
466.2991626063667
 30
0.0
 10
339.3070874015175
 20
466.1432778517847
 30
0.0
 10
339.4346628964231
 20
466.0157239835098
 30
0.0
 10
339.590569277636
 20
466.0157239835098
 30
0.0
 10
339.590569277636
 20
466.0157239835098
 30
0.0
 10
347.8110246459328
 20
466.0157239835098
 30
0.0
 10
347.8110246459328
 20
466.0157239835098
 30
0.0
 10
348.0945065220512
 20
466.0157239835098
 30
0.0
 10
347.8110246459328
 20
466.2991626063667
 30
0.0
 10
347.8110246459328
 20
466.0157239835098
 30
0.0
 10
347.8110246459328
 20
466.0157239835098
 30
0.0
 10
347.8110246459328
 20
449.5747699936546
 30
0.0
 10
347.8110246459328
 20
449.5747699936546
 30
0.0
 10
347.8110246459328
 20
449.2912881175361
 30
0.0
 10
348.0945065220512
 20
449.5747699936546
 30
0.0
 10
347.8110246459328
 20
449.5747699936546
 30
0.0
 10
347.8110246459328
 20
449.5747699936546
 30
0.0
 10
339.590569277636
 20
449.5747699936546
 30
0.0
 10
339.590569277636
 20
449.5747699936546
 30
0.0
 10
339.4346628964231
 20
449.5747699936546
 30
0.0
 10
339.3070874015175
 20
449.4472161253797
 30
0.0
 10
339.3070874015175
 20
449.2912881175361
 30
0.0
 10
339.3070874015175
 20
449.2912881175361
 30
0.0
 10
339.3070874015175
 20
432.2834136287055
 30
0.0
 10
339.3070874015175
 20
432.2834136287055
 30
0.0
 10
339.3070874015175
 20
432.1275288741235
 30
0.0
 10
339.4346628964231
 20
431.9999750058486
 30
0.0
 10
339.590569277636
 20
431.9999750058486
 30
0.0
 10
339.590569277636
 20
431.9999750058486
 30
0.0
 10
347.8110246459328
 20
431.9999750058486
 30
0.0
 10
347.8110246459328
 20
431.9999750058486
 30
0.0
 10
348.0945065220512
 20
431.9999750058486
 30
0.0
 10
347.8110246459328
 20
432.2834136287055
 30
0.0
 10
347.8110246459328
 20
431.9999750058486
 30
0.0
 10
347.8110246459328
 20
431.9999750058486
 30
0.0
 10
347.8110246459328
 20
415.5590210159934
 30
0.0
 10
347.8110246459328
 20
415.5590210159934
 30
0.0
 10
347.8110246459328
 20
415.275539139875
 30
0.0
 10
348.0945065220512
 20
415.5590210159934
 30
0.0
 10
347.8110246459328
 20
415.5590210159934
 30
0.0
 10
347.8110246459328
 20
415.5590210159934
 30
0.0
 10
339.590569277636
 20
415.5590210159934
 30
0.0
 10
339.590569277636
 20
415.5590210159934
 30
0.0
 10
339.4346628964231
 20
415.5590210159934
 30
0.0
 10
339.3070874015175
 20
415.4314671477186
 30
0.0
 10
339.3070874015175
 20
415.275539139875
 30
0.0
 10
339.3070874015175
 20
415.275539139875
 30
0.0
 10
339.3070874015175
 20
398.2676646510445
 30
0.0
 10
339.3070874015175
 20
398.2676646510445
 30
0.0
 10
339.3070874015175
 20
398.1117798964624
 30
0.0
 10
339.4346628964231
 20
397.9842260281876
 30
0.0
 10
339.590569277636
 20
397.9842260281876
 30
0.0
 10
339.590569277636
 20
397.9842260281876
 30
0.0
 10
347.8110246459328
 20
397.9842260281876
 30
0.0
 10
347.8110246459328
 20
397.9842260281876
 30
0.0
 10
348.0945065220512
 20
397.9842260281876
 30
0.0
 10
347.8110246459328
 20
398.2676646510445
 30
0.0
 10
347.8110246459328
 20
397.9842260281876
 30
0.0
 10
347.8110246459328
 20
397.9842260281876
 30
0.0
 10
347.8110246459328
 20
381.5432720383324
 30
0.0
 10
347.8110246459328
 20
381.5432720383324
 30
0.0
 10
347.8110246459328
 20
381.2597901622139
 30
0.0
 10
348.0945065220512
 20
381.5432720383324
 30
0.0
 10
347.8110246459328
 20
381.5432720383324
 30
0.0
 10
347.8110246459328
 20
381.5432720383324
 30
0.0
 10
339.590569277636
 20
381.5432720383324
 30
0.0
 10
339.590569277636
 20
381.5432720383324
 30
0.0
 10
339.4346628964231
 20
381.5432720383324
 30
0.0
 10
339.3070874015175
 20
381.4157181700575
 30
0.0
 10
339.3070874015175
 20
381.2597901622139
 30
0.0
 10
339.3070874015175
 20
381.2597901622139
 30
0.0
 10
339.3070874015175
 20
364.2519156733833
 30
0.0
 10
339.3070874015175
 20
364.2519156733833
 30
0.0
 10
339.3070874015175
 20
364.0960309188013
 30
0.0
 10
339.4346628964231
 20
363.9684770505264
 30
0.0
 10
339.590569277636
 20
363.9684770505264
 30
0.0
 10
339.590569277636
 20
363.9684770505264
 30
0.0
 10
347.8110246459328
 20
363.9684770505264
 30
0.0
 10
347.8110246459328
 20
363.9684770505264
 30
0.0
 10
348.0945065220512
 20
363.9684770505264
 30
0.0
 10
347.8110246459328
 20
364.2519156733833
 30
0.0
 10
347.8110246459328
 20
363.9684770505264
 30
0.0
 10
347.8110246459328
 20
363.9684770505264
 30
0.0
 10
347.8110246459328
 20
338.7401039401375
 30
0.0
 10
347.8110246459328
 20
338.7401039401375
 30
0.0
 10
347.8110246459328
 20
338.5842191855554
 30
0.0
 10
347.9386001408384
 20
338.4566653172806
 30
0.0
 10
348.0945065220512
 20
338.4566653172806
 30
0.0
  0
LWPOLYLINE
  5
A5
330
98
100
AcDbEntity
  8
svg38
 62
   250
420
  2299925
370
    30
100
AcDbPolyline
 90
       65
 70
     0
 43
0.0
 10
493.0497242059354
 20
503.8839625698019
 10
492.5224669477902
 20
503.9123096760831
 10
491.9980644049064
 20
503.9888449707095
 10
491.4849942165456
 20
504.1192386859365
 10
490.9832563827076
 20
504.2978205895106
 10
490.5070379731768
 20
504.5217575928009
 10
490.0506511840612
 20
504.793884136101
 10
489.6283047117758
 20
505.1085299871574
 10
489.2371222144284
 20
505.4656951459701
 10
488.8799584072804
 20
505.8597107319483
 10
488.5653125562239
 20
506.2820720725421
 10
488.2931846612591
 20
506.7356176630401
 10
488.0692408996473
 20
507.2146718645308
 10
487.8906698093888
 20
507.713568499752
 10
487.7602612258524
 20
508.2266413914412
 10
487.6837245795614
 20
508.7510493409827
 10
487.6553936932541
 20
509.2782930824832
 10
487.6837245795614
 20
509.8055368239847
 10
487.7602612258524
 20
510.3299474768554
 10
487.8906698093888
 20
510.8430176652164
 10
488.0692408996473
 20
511.3419170037651
 10
488.2931846612591
 20
511.8209712052557
 10
488.5653125562239
 20
512.2745140924252
 10
488.8799584072804
 20
512.6968767846838
 10
489.2371222144284
 20
513.090892370662
 10
489.6283047117758
 20
513.44805617781
 10
490.0506511840612
 20
513.7627020288664
 10
490.5070379731768
 20
514.0348299238312
 10
490.9832563827076
 20
514.2587655754559
 10
491.4849942165456
 20
514.4373501823593
 10
491.9980644049064
 20
514.5677425459225
 10
492.5224669477902
 20
514.6442791922136
 10
493.0497242059354
 20
514.6697905065338
 10
493.5769598374499
 20
514.6442791922136
 10
494.098529291703
 20
514.5677425459225
 10
494.6144325686946
 20
514.4373501823593
 10
495.1133373139018
 20
514.2587655754559
 10
495.5923888120633
 20
514.0348299238312
 10
496.0431094239175
 20
513.7627020288664
 10
496.4711220734643
 20
513.44805617781
 10
496.8623045708118
 20
513.090892370662
 10
497.2194683779598
 20
512.6968767846838
 10
497.5341142290162
 20
512.2745140924252
 10
497.806242123981
 20
511.8209712052557
 10
498.0301858855928
 20
511.3419170037651
 10
498.2087786024822
 20
510.8430176652164
 10
498.3391655593877
 20
510.3299474768554
 10
498.4157022056788
 20
509.8055368239847
 10
498.4412216299861
 20
509.2782930824832
 10
498.4157022056788
 20
508.7510493409827
 10
498.3391655593877
 20
508.2266413914412
 10
498.2087786024822
 20
507.713568499752
 10
498.0301858855928
 20
507.2146718645308
 10
497.806242123981
 20
506.7356176630401
 10
497.5341142290162
 20
506.2820720725421
 10
497.2194683779598
 20
505.8597107319483
 10
496.8623045708118
 20
505.4656951459701
 10
496.4711220734643
 20
505.1085299871574
 10
496.0431094239175
 20
504.793884136101
 10
495.5923888120633
 20
504.5217575928009
 10
495.1133373139018
 20
504.2978205895106
 10
494.6144325686946
 20
504.1192386859365
 10
494.098529291703
 20
503.9888449707095
 10
493.5769598374499
 20
503.9123096760831
 10
493.0497242059354
 20
503.8839625698019
  0
LWPOLYLINE
  5
A6
330
98
100
AcDbEntity
  8
svg38
 62
   250
420
  2299925
370
    30
100
AcDbPolyline
 90
       65
 70
     0
 43
0.0
 10
493.0497242059354
 20
429.6304153590535
 10
493.5769598374499
 20
429.6049067480598
 10
494.098529291703
 20
429.5283701017687
 10
494.6144325686946
 20
429.3979777382064
 10
495.1133373139018
 20
429.2193958346324
 10
495.5923888120633
 20
428.9954574796793
 10
496.0431094239175
 20
428.7233295847145
 10
496.4711220734643
 20
428.408683733658
 10
496.8623045708118
 20
428.05151992651
 10
497.2194683779598
 20
427.6575043405318
 10
497.5341142290162
 20
427.2351416482725
 10
497.806242123981
 20
426.7815987611029
 10
498.0301858855928
 20
426.3025418562829
 10
498.2087786024822
 20
425.8036479243928
 10
498.3391655593877
 20
425.2905723293734
 10
498.4157022056788
 20
424.766164379831
 10
498.4412216299861
 20
424.2389233416597
 10
498.4157022056788
 20
423.7116768968299
 10
498.3391655593877
 20
423.1872689472875
 10
498.2087786024822
 20
422.6741987589266
 10
498.0301858855928
 20
422.175299420378
 10
497.806242123981
 20
421.6962425155579
 10
497.5341142290162
 20
421.2426996283902
 10
497.2194683779598
 20
420.8203369361308
 10
496.8623045708118
 20
420.4263213501526
 10
496.4711220734643
 20
420.0691575430046
 10
496.0431094239175
 20
419.7545116919481
 10
495.5923888120633
 20
419.4823837969834
 10
495.1133373139018
 20
419.258450848687
 10
494.6144325686946
 20
419.0798635384562
 10
494.098529291703
 20
418.949471174892
 10
493.5769598374499
 20
418.872934528601
 10
493.0497242059354
 20
418.8445928289784
 10
492.5224669477902
 20
418.872934528601
 10
491.9980644049064
 20
418.949471174892
 10
491.4849942165456
 20
419.0798635384562
 10
490.9832563827076
 20
419.258450848687
 10
490.5070379731768
 20
419.4823837969834
 10
490.0506511840612
 20
419.7545116919481
 10
489.6283047117758
 20
420.0691575430046
 10
489.2371222144284
 20
420.4263213501526
 10
488.8799584072804
 20
420.8203369361308
 10
488.5653125562239
 20
421.2426996283902
 10
488.2931846612591
 20
421.6962425155579
 10
488.0692408996473
 20
422.175299420378
 10
487.8906698093888
 20
422.6741987589266
 10
487.7602612258524
 20
423.1872689472875
 10
487.6837245795614
 20
423.7116768968299
 10
487.6553936932541
 20
424.2389233416597
 10
487.6837245795614
 20
424.766164379831
 10
487.7602612258524
 20
425.2905723293734
 10
487.8906698093888
 20
425.8036479243928
 10
488.0692408996473
 20
426.3025418562829
 10
488.2931846612591
 20
426.7815987611029
 10
488.5653125562239
 20
427.2351416482725
 10
488.8799584072804
 20
427.6575043405318
 10
489.2371222144284
 20
428.05151992651
 10
489.6283047117758
 20
428.408683733658
 10
490.0506511840612
 20
428.7233295847145
 10
490.5070379731768
 20
428.9954574796793
 10
490.9832563827076
 20
429.2193958346324
 10
491.4849942165456
 20
429.3979777382064
 10
491.9980644049064
 20
429.5283701017687
 10
492.5224669477902
 20
429.6049067480598
 10
493.0497242059354
 20
429.6304153590535
  0
ENDBLK
  5
9B
330
98
100
AcDbEntity
  8
0
100
AcDbBlockEnd
  0
BLOCK
  5
A9
330
A7
100
AcDbEntity
  8
0
100
AcDbBlockBegin
  2
Block_4
 70
     0
 10
0.0
 20
0.0
 30
0.0
  3
Block_4
  1

  0
SPLINE
  5
AB
330
A7
100
AcDbEntity
  8
svg38
 62
   250
420
  2299925
370
    20
100
AcDbSpline
210
0.0
220
0.0
230
1.0
 70
    11
 71
     3
 72
    32
 73
    28
 74
     0
 42
0.0000000001
 43
0.0000000001
 40
0.0
 40
0.0
 40
0.0
 40
0.0
 40
1.0
 40
1.0
 40
1.0
 40
2.0
 40
2.0
 40
2.0
 40
3.0
 40
3.0
 40
3.0
 40
4.0
 40
4.0
 40
4.0
 40
5.0
 40
5.0
 40
5.0
 40
6.0
 40
6.0
 40
6.0
 40
7.0
 40
7.0
 40
7.0
 40
8.0
 40
8.0
 40
8.0
 40
9.0
 40
9.0
 40
9.0
 40
9.0
 10
62.64567211519079
 20
347.5275230606712
 30
0.0
 10
62.64567211519079
 20
347.5275230606712
 30
0.0
 10
54.42520052692088
 20
347.5275230606712
 30
0.0
 10
54.42520052692088
 20
347.5275230606712
 30
0.0
 10
54.14173487077551
 20
347.5275230606712
 30
0.0
 10
54.42520052692088
 20
347.2440411845528
 30
0.0
 10
54.42520052692088
 20
347.5275230606712
 30
0.0
 10
54.42520052692088
 20
347.5275230606712
 30
0.0
 10
54.42520052692088
 20
355.4644965528496
 30
0.0
 10
54.42520052692088
 20
355.4644965528496
 30
0.0
 10
54.42520052692088
 20
355.7479784289681
 30
0.0
 10
54.14173487077551
 20
355.4644965528496
 30
0.0
 10
54.42520052692088
 20
355.4644965528496
 30
0.0
 10
54.42520052692088
 20
355.4644965528496
 30
0.0
 10
70.86614370346069
 20
355.4644965528496
 30
0.0
 10
70.86614370346069
 20
355.4644965528496
 30
0.0
 10
71.14960935960607
 20
355.4644965528496
 30
0.0
 10
70.86614370346069
 20
355.7479784289681
 30
0.0
 10
70.86614370346069
 20
355.4644965528496
 30
0.0
 10
70.86614370346069
 20
355.4644965528496
 30
0.0
 10
70.86614370346069
 20
347.5275230606712
 30
0.0
 10
70.86614370346069
 20
347.5275230606712
 30
0.0
 10
70.86614370346069
 20
347.2440411845528
 30
0.0
 10
71.14960935960607
 20
347.5275230606712
 30
0.0
 10
70.86614370346069
 20
347.5275230606712
 30
0.0
 10
70.86614370346069
 20
347.5275230606712
 30
0.0
 10
62.64567211519079
 20
347.5275230606712
 30
0.0
 10
62.64567211519079
 20
347.5275230606712
 30
0.0
  0
SPLINE
  5
AC
330
A7
100
AcDbEntity
  8
svg38
 62
   250
420
  2299925
370
    20
100
AcDbSpline
210
0.0
220
0.0
230
1.0
 70
    11
 71
     3
 72
    32
 73
    28
 74
     0
 42
0.0000000001
 43
0.0000000001
 40
0.0
 40
0.0
 40
0.0
 40
0.0
 40
1.0
 40
1.0
 40
1.0
 40
2.0
 40
2.0
 40
2.0
 40
3.0
 40
3.0
 40
3.0
 40
4.0
 40
4.0
 40
4.0
 40
5.0
 40
5.0
 40
5.0
 40
6.0
 40
6.0
 40
6.0
 40
7.0
 40
7.0
 40
7.0
 40
8.0
 40
8.0
 40
8.0
 40
9.0
 40
9.0
 40
9.0
 40
9.0
 10
96.66141568619423
 20
347.5275230606712
 30
0.0
 10
96.66141568619423
 20
347.5275230606712
 30
0.0
 10
88.44094409792432
 20
347.5275230606712
 30
0.0
 10
88.44094409792432
 20
347.5275230606712
 30
0.0
 10
88.15747844177895
 20
347.5275230606712
 30
0.0
 10
88.44094409792432
 20
347.2440411845528
 30
0.0
 10
88.44094409792432
 20
347.5275230606712
 30
0.0
 10
88.44094409792432
 20
347.5275230606712
 30
0.0
 10
88.44094409792432
 20
355.4644965528496
 30
0.0
 10
88.44094409792432
 20
355.4644965528496
 30
0.0
 10
88.44094409792432
 20
355.7479784289681
 30
0.0
 10
88.15747844177895
 20
355.4644965528496
 30
0.0
 10
88.44094409792432
 20
355.4644965528496
 30
0.0
 10
88.44094409792432
 20
355.4644965528496
 30
0.0
 10
104.8818926811218
 20
355.4644965528496
 30
0.0
 10
104.8818926811218
 20
355.4644965528496
 30
0.0
 10
105.1653529306095
 20
355.4644965528496
 30
0.0
 10
104.8818926811218
 20
355.7479784289681
 30
0.0
 10
104.8818926811218
 20
355.4644965528496
 30
0.0
 10
104.8818926811218
 20
355.4644965528496
 30
0.0
 10
104.8818926811218
 20
347.5275230606712
 30
0.0
 10
104.8818926811218
 20
347.5275230606712
 30
0.0
 10
104.8818926811218
 20
347.2440411845528
 30
0.0
 10
105.1653529306095
 20
347.5275230606712
 30
0.0
 10
104.8818926811218
 20
347.5275230606712
 30
0.0
 10
104.8818926811218
 20
347.5275230606712
 30
0.0
 10
96.66141568619423
 20
347.5275230606712
 30
0.0
 10
96.66141568619423
 20
347.5275230606712
 30
0.0
  0
SPLINE
  5
AD
330
A7
100
AcDbEntity
  8
svg38
 62
   250
420
  2299925
370
    20
100
AcDbSpline
210
0.0
220
0.0
230
1.0
 70
    11
 71
     3
 72
    32
 73
    28
 74
     0
 42
0.0000000001
 43
0.0000000001
 40
0.0
 40
0.0
 40
0.0
 40
0.0
 40
1.0
 40
1.0
 40
1.0
 40
2.0
 40
2.0
 40
2.0
 40
3.0
 40
3.0
 40
3.0
 40
4.0
 40
4.0
 40
4.0
 40
5.0
 40
5.0
 40
5.0
 40
6.0
 40
6.0
 40
6.0
 40
7.0
 40
7.0
 40
7.0
 40
8.0
 40
8.0
 40
8.0
 40
9.0
 40
9.0
 40
9.0
 40
9.0
 10
130.6771646638553
 20
347.5275230606712
 30
0.0
 10
130.6771646638553
 20
347.5275230606712
 30
0.0
 10
122.4566876689277
 20
347.5275230606712
 30
0.0
 10
122.4566876689277
 20
347.5275230606712
 30
0.0
 10
122.1732274194401
 20
347.5275230606712
 30
0.0
 10
122.4566876689277
 20
347.2440411845528
 30
0.0
 10
122.4566876689277
 20
347.5275230606712
 30
0.0
 10
122.4566876689277
 20
347.5275230606712
 30
0.0
 10
122.4566876689277
 20
355.4644965528496
 30
0.0
 10
122.4566876689277
 20
355.4644965528496
 30
0.0
 10
122.4566876689277
 20
355.7479784289681
 30
0.0
 10
122.1732274194401
 20
355.4644965528496
 30
0.0
 10
122.4566876689277
 20
355.4644965528496
 30
0.0
 10
122.4566876689277
 20
355.4644965528496
 30
0.0
 10
138.8976416587829
 20
355.4644965528496
 30
0.0
 10
138.8976416587829
 20
355.4644965528496
 30
0.0
 10
139.1811019082706
 20
355.4644965528496
 30
0.0
 10
138.8976416587829
 20
355.7479784289681
 30
0.0
 10
138.8976416587829
 20
355.4644965528496
 30
0.0
 10
138.8976416587829
 20
355.4644965528496
 30
0.0
 10
138.8976416587829
 20
347.5275230606712
 30
0.0
 10
138.8976416587829
 20
347.5275230606712
 30
0.0
 10
138.8976416587829
 20
347.2440411845528
 30
0.0
 10
139.1811019082706
 20
347.5275230606712
 30
0.0
 10
138.8976416587829
 20
347.5275230606712
 30
0.0
 10
138.8976416587829
 20
347.5275230606712
 30
0.0
 10
130.6771646638553
 20
347.5275230606712
 30
0.0
 10
130.6771646638553
 20
347.5275230606712
 30
0.0
  0
SPLINE
  5
AE
330
A7
100
AcDbEntity
  8
svg38
 62
   250
420
  2299925
370
    20
100
AcDbSpline
210
0.0
220
0.0
230
1.0
 70
    11
 71
     3
 72
    32
 73
    28
 74
     0
 42
0.0000000001
 43
0.0000000001
 40
0.0
 40
0.0
 40
0.0
 40
0.0
 40
1.0
 40
1.0
 40
1.0
 40
2.0
 40
2.0
 40
2.0
 40
3.0
 40
3.0
 40
3.0
 40
4.0
 40
4.0
 40
4.0
 40
5.0
 40
5.0
 40
5.0
 40
6.0
 40
6.0
 40
6.0
 40
7.0
 40
7.0
 40
7.0
 40
8.0
 40
8.0
 40
8.0
 40
9.0
 40
9.0
 40
9.0
 40
9.0
 10
164.6929136415165
 20
347.5275230606712
 30
0.0
 10
164.6929136415165
 20
347.5275230606712
 30
0.0
 10
156.4724366465889
 20
347.5275230606712
 30
0.0
 10
156.4724366465889
 20
347.5275230606712
 30
0.0
 10
156.1889763971012
 20
347.5275230606712
 30
0.0
 10
156.4724366465889
 20
347.2440411845528
 30
0.0
 10
156.4724366465889
 20
347.5275230606712
 30
0.0
 10
156.4724366465889
 20
347.5275230606712
 30
0.0
 10
156.4724366465889
 20
355.4644965528496
 30
0.0
 10
156.4724366465889
 20
355.4644965528496
 30
0.0
 10
156.4724366465889
 20
355.7479784289681
 30
0.0
 10
156.1889763971012
 20
355.4644965528496
 30
0.0
 10
156.4724366465889
 20
355.4644965528496
 30
0.0
 10
156.4724366465889
 20
355.4644965528496
 30
0.0
 10
172.9133906364441
 20
355.4644965528496
 30
0.0
 10
172.9133906364441
 20
355.4644965528496
 30
0.0
 10
173.1968508859317
 20
355.4644965528496
 30
0.0
 10
172.9133906364441
 20
355.7479784289681
 30
0.0
 10
172.9133906364441
 20
355.4644965528496
 30
0.0
 10
172.9133906364441
 20
355.4644965528496
 30
0.0
 10
172.9133906364441
 20
347.5275230606712
 30
0.0
 10
172.9133906364441
 20
347.5275230606712
 30
0.0
 10
172.9133906364441
 20
347.2440411845528
 30
0.0
 10
173.1968508859317
 20
347.5275230606712
 30
0.0
 10
172.9133906364441
 20
347.5275230606712
 30
0.0
 10
172.9133906364441
 20
347.5275230606712
 30
0.0
 10
164.6929136415165
 20
347.5275230606712
 30
0.0
 10
164.6929136415165
 20
347.5275230606712
 30
0.0
  0
SPLINE
  5
AF
330
A7
100
AcDbEntity
  8
svg38
 62
   250
420
  2299925
370
    20
100
AcDbSpline
210
0.0
220
0.0
230
1.0
 70
    11
 71
     3
 72
    32
 73
    28
 74
     0
 42
0.0000000001
 43
0.0000000001
 40
0.0
 40
0.0
 40
0.0
 40
0.0
 40
1.0
 40
1.0
 40
1.0
 40
2.0
 40
2.0
 40
2.0
 40
3.0
 40
3.0
 40
3.0
 40
4.0
 40
4.0
 40
4.0
 40
5.0
 40
5.0
 40
5.0
 40
6.0
 40
6.0
 40
6.0
 40
7.0
 40
7.0
 40
7.0
 40
8.0
 40
8.0
 40
8.0
 40
9.0
 40
9.0
 40
9.0
 40
9.0
 10
198.7086626191776
 20
347.5275230606712
 30
0.0
 10
198.7086626191776
 20
347.5275230606712
 30
0.0
 10
190.48818562425
 20
347.5275230606712
 30
0.0
 10
190.48818562425
 20
347.5275230606712
 30
0.0
 10
190.2047253747623
 20
347.5275230606712
 30
0.0
 10
190.48818562425
 20
347.2440411845528
 30
0.0
 10
190.48818562425
 20
347.5275230606712
 30
0.0
 10
190.48818562425
 20
347.5275230606712
 30
0.0
 10
190.48818562425
 20
355.4644965528496
 30
0.0
 10
190.48818562425
 20
355.4644965528496
 30
0.0
 10
190.48818562425
 20
355.7479784289681
 30
0.0
 10
190.2047253747623
 20
355.4644965528496
 30
0.0
 10
190.48818562425
 20
355.4644965528496
 30
0.0
 10
190.48818562425
 20
355.4644965528496
 30
0.0
 10
206.9291396141052
 20
355.4644965528496
 30
0.0
 10
206.9291396141052
 20
355.4644965528496
 30
0.0
 10
207.2125998635929
 20
355.4644965528496
 30
0.0
 10
206.9291396141052
 20
355.7479784289681
 30
0.0
 10
206.9291396141052
 20
355.4644965528496
 30
0.0
 10
206.9291396141052
 20
355.4644965528496
 30
0.0
 10
206.9291396141052
 20
347.5275230606712
 30
0.0
 10
206.9291396141052
 20
347.5275230606712
 30
0.0
 10
206.9291396141052
 20
347.2440411845528
 30
0.0
 10
207.2125998635929
 20
347.5275230606712
 30
0.0
 10
206.9291396141052
 20
347.5275230606712
 30
0.0
 10
206.9291396141052
 20
347.5275230606712
 30
0.0
 10
198.7086626191776
 20
347.5275230606712
 30
0.0
 10
198.7086626191776
 20
347.5275230606712
 30
0.0
  0
SPLINE
  5
B0
330
A7
100
AcDbEntity
  8
svg38
 62
   250
420
  2299925
370
    20
100
AcDbSpline
210
0.0
220
0.0
230
1.0
 70
    11
 71
     3
 72
    32
 73
    28
 74
     0
 42
0.0000000001
 43
0.0000000001
 40
0.0
 40
0.0
 40
0.0
 40
0.0
 40
1.0
 40
1.0
 40
1.0
 40
2.0
 40
2.0
 40
2.0
 40
3.0
 40
3.0
 40
3.0
 40
4.0
 40
4.0
 40
4.0
 40
5.0
 40
5.0
 40
5.0
 40
6.0
 40
6.0
 40
6.0
 40
7.0
 40
7.0
 40
7.0
 40
8.0
 40
8.0
 40
8.0
 40
9.0
 40
9.0
 40
9.0
 40
9.0
 10
232.7244115968388
 20
347.5275230606712
 30
0.0
 10
232.7244115968388
 20
347.5275230606712
 30
0.0
 10
224.5039346019112
 20
347.5275230606712
 30
0.0
 10
224.5039346019112
 20
347.5275230606712
 30
0.0
 10
224.2204743524235
 20
347.5275230606712
 30
0.0
 10
224.5039346019112
 20
347.2440411845528
 30
0.0
 10
224.5039346019112
 20
347.5275230606712
 30
0.0
 10
224.5039346019112
 20
347.5275230606712
 30
0.0
 10
224.5039346019112
 20
355.4644965528496
 30
0.0
 10
224.5039346019112
 20
355.4644965528496
 30
0.0
 10
224.5039346019112
 20
355.7479784289681
 30
0.0
 10
224.2204743524235
 20
355.4644965528496
 30
0.0
 10
224.5039346019112
 20
355.4644965528496
 30
0.0
 10
224.5039346019112
 20
355.4644965528496
 30
0.0
 10
240.9448885917663
 20
355.4644965528496
 30
0.0
 10
240.9448885917663
 20
355.4644965528496
 30
0.0
 10
241.2283488412541
 20
355.4644965528496
 30
0.0
 10
240.9448885917663
 20
355.7479784289681
 30
0.0
 10
240.9448885917663
 20
355.4644965528496
 30
0.0
 10
240.9448885917663
 20
355.4644965528496
 30
0.0
 10
240.9448885917663
 20
347.5275230606712
 30
0.0
 10
240.9448885917663
 20
347.5275230606712
 30
0.0
 10
240.9448885917663
 20
347.2440411845528
 30
0.0
 10
241.2283488412541
 20
347.5275230606712
 30
0.0
 10
240.9448885917663
 20
347.5275230606712
 30
0.0
 10
240.9448885917663
 20
347.5275230606712
 30
0.0
 10
232.7244115968388
 20
347.5275230606712
 30
0.0
 10
232.7244115968388
 20
347.5275230606712
 30
0.0
  0
SPLINE
  5
B1
330
A7
100
AcDbEntity
  8
svg38
 62
   250
420
  2299925
370
    20
100
AcDbSpline
210
0.0
220
0.0
230
1.0
 70
    11
 71
     3
 72
    32
 73
    28
 74
     0
 42
0.0000000001
 43
0.0000000001
 40
0.0
 40
0.0
 40
0.0
 40
0.0
 40
1.0
 40
1.0
 40
1.0
 40
2.0
 40
2.0
 40
2.0
 40
3.0
 40
3.0
 40
3.0
 40
4.0
 40
4.0
 40
4.0
 40
5.0
 40
5.0
 40
5.0
 40
6.0
 40
6.0
 40
6.0
 40
7.0
 40
7.0
 40
7.0
 40
8.0
 40
8.0
 40
8.0
 40
9.0
 40
9.0
 40
9.0
 40
9.0
 10
266.7401605744999
 20
347.5275230606712
 30
0.0
 10
266.7401605744999
 20
347.5275230606712
 30
0.0
 10
258.5196835795723
 20
347.5275230606712
 30
0.0
 10
258.5196835795723
 20
347.5275230606712
 30
0.0
 10
258.2362233300846
 20
347.5275230606712
 30
0.0
 10
258.5196835795723
 20
347.2440411845528
 30
0.0
 10
258.5196835795723
 20
347.5275230606712
 30
0.0
 10
258.5196835795723
 20
347.5275230606712
 30
0.0
 10
258.5196835795723
 20
355.4644965528496
 30
0.0
 10
258.5196835795723
 20
355.4644965528496
 30
0.0
 10
258.5196835795723
 20
355.7479784289681
 30
0.0
 10
258.2362233300846
 20
355.4644965528496
 30
0.0
 10
258.5196835795723
 20
355.4644965528496
 30
0.0
 10
258.5196835795723
 20
355.4644965528496
 30
0.0
 10
274.9606375694275
 20
355.4644965528496
 30
0.0
 10
274.9606375694275
 20
355.4644965528496
 30
0.0
 10
275.2440978189152
 20
355.4644965528496
 30
0.0
 10
274.9606375694275
 20
355.7479784289681
 30
0.0
 10
274.9606375694275
 20
355.4644965528496
 30
0.0
 10
274.9606375694275
 20
355.4644965528496
 30
0.0
 10
274.9606375694275
 20
347.5275230606712
 30
0.0
 10
274.9606375694275
 20
347.5275230606712
 30
0.0
 10
274.9606375694275
 20
347.2440411845528
 30
0.0
 10
275.2440978189152
 20
347.5275230606712
 30
0.0
 10
274.9606375694275
 20
347.5275230606712
 30
0.0
 10
274.9606375694275
 20
347.5275230606712
 30
0.0
 10
266.7401605744999
 20
347.5275230606712
 30
0.0
 10
266.7401605744999
 20
347.5275230606712
 30
0.0
  0
SPLINE
  5
B2
330
A7
100
AcDbEntity
  8
svg38
 62
   250
420
  2299925
370
    20
100
AcDbSpline
210
0.0
220
0.0
230
1.0
 70
    11
 71
     3
 72
    32
 73
    28
 74
     0
 42
0.0000000001
 43
0.0000000001
 40
0.0
 40
0.0
 40
0.0
 40
0.0
 40
1.0
 40
1.0
 40
1.0
 40
2.0
 40
2.0
 40
2.0
 40
3.0
 40
3.0
 40
3.0
 40
4.0
 40
4.0
 40
4.0
 40
5.0
 40
5.0
 40
5.0
 40
6.0
 40
6.0
 40
6.0
 40
7.0
 40
7.0
 40
7.0
 40
8.0
 40
8.0
 40
8.0
 40
9.0
 40
9.0
 40
9.0
 40
9.0
 10
300.755909552161
 20
347.5275230606712
 30
0.0
 10
300.755909552161
 20
347.5275230606712
 30
0.0
 10
292.5354325572334
 20
347.5275230606712
 30
0.0
 10
292.5354325572334
 20
347.5275230606712
 30
0.0
 10
292.2519723077457
 20
347.5275230606712
 30
0.0
 10
292.5354325572334
 20
347.2440411845528
 30
0.0
 10
292.5354325572334
 20
347.5275230606712
 30
0.0
 10
292.5354325572334
 20
347.5275230606712
 30
0.0
 10
292.5354325572334
 20
355.4644965528496
 30
0.0
 10
292.5354325572334
 20
355.4644965528496
 30
0.0
 10
292.5354325572334
 20
355.7479784289681
 30
0.0
 10
292.2519723077457
 20
355.4644965528496
 30
0.0
 10
292.5354325572334
 20
355.4644965528496
 30
0.0
 10
292.5354325572334
 20
355.4644965528496
 30
0.0
 10
308.9763865470886
 20
355.4644965528496
 30
0.0
 10
308.9763865470886
 20
355.4644965528496
 30
0.0
 10
309.2598467965763
 20
355.4644965528496
 30
0.0
 10
308.9763865470886
 20
355.7479784289681
 30
0.0
 10
308.9763865470886
 20
355.4644965528496
 30
0.0
 10
308.9763865470886
 20
355.4644965528496
 30
0.0
 10
308.9763865470886
 20
347.5275230606712
 30
0.0
 10
308.9763865470886
 20
347.5275230606712
 30
0.0
 10
308.9763865470886
 20
347.2440411845528
 30
0.0
 10
309.2598467965763
 20
347.5275230606712
 30
0.0
 10
308.9763865470886
 20
347.5275230606712
 30
0.0
 10
308.9763865470886
 20
347.5275230606712
 30
0.0
 10
300.755909552161
 20
347.5275230606712
 30
0.0
 10
300.755909552161
 20
347.5275230606712
 30
0.0
  0
SPLINE
  5
B3
330
A7
100
AcDbEntity
  8
svg38
 62
   250
420
  2299925
370
    20
100
AcDbSpline
210
0.0
220
0.0
230
1.0
 70
    11
 71
     3
 72
   449
 73
   445
 74
     0
 42
0.0000000001
 43
0.0000000001
 40
0.0
 40
0.0
 40
0.0
 40
0.0
 40
1.0
 40
1.0
 40
1.0
 40
2.0
 40
2.0
 40
2.0
 40
3.0
 40
3.0
 40
3.0
 40
4.0
 40
4.0
 40
4.0
 40
5.0
 40
5.0
 40
5.0
 40
6.0
 40
6.0
 40
6.0
 40
7.0
 40
7.0
 40
7.0
 40
8.0
 40
8.0
 40
8.0
 40
9.0
 40
9.0
 40
9.0
 40
10.0
 40
10.0
 40
10.0
 40
11.0
 40
11.0
 40
11.0
 40
12.0
 40
12.0
 40
12.0
 40
13.0
 40
13.0
 40
13.0
 40
14.0
 40
14.0
 40
14.0
 40
15.0
 40
15.0
 40
15.0
 40
16.0
 40
16.0
 40
16.0
 40
17.0
 40
17.0
 40
17.0
 40
18.0
 40
18.0
 40
18.0
 40
19.0
 40
19.0
 40
19.0
 40
20.0
 40
20.0
 40
20.0
 40
21.0
 40
21.0
 40
21.0
 40
22.0
 40
22.0
 40
22.0
 40
23.0
 40
23.0
 40
23.0
 40
24.0
 40
24.0
 40
24.0
 40
25.0
 40
25.0
 40
25.0
 40
26.0
 40
26.0
 40
26.0
 40
27.0
 40
27.0
 40
27.0
 40
28.0
 40
28.0
 40
28.0
 40
29.0
 40
29.0
 40
29.0
 40
30.0
 40
30.0
 40
30.0
 40
31.0
 40
31.0
 40
31.0
 40
32.0
 40
32.0
 40
32.0
 40
33.0
 40
33.0
 40
33.0
 40
34.0
 40
34.0
 40
34.0
 40
35.0
 40
35.0
 40
35.0
 40
36.0
 40
36.0
 40
36.0
 40
37.0
 40
37.0
 40
37.0
 40
38.0
 40
38.0
 40
38.0
 40
39.0
 40
39.0
 40
39.0
 40
40.0
 40
40.0
 40
40.0
 40
41.0
 40
41.0
 40
41.0
 40
42.0
 40
42.0
 40
42.0
 40
43.0
 40
43.0
 40
43.0
 40
44.0
 40
44.0
 40
44.0
 40
45.0
 40
45.0
 40
45.0
 40
46.0
 40
46.0
 40
46.0
 40
47.0
 40
47.0
 40
47.0
 40
48.0
 40
48.0
 40
48.0
 40
49.0
 40
49.0
 40
49.0
 40
50.0
 40
50.0
 40
50.0
 40
51.0
 40
51.0
 40
51.0
 40
52.0
 40
52.0
 40
52.0
 40
53.0
 40
53.0
 40
53.0
 40
54.0
 40
54.0
 40
54.0
 40
55.0
 40
55.0
 40
55.0
 40
56.0
 40
56.0
 40
56.0
 40
57.0
 40
57.0
 40
57.0
 40
58.0
 40
58.0
 40
58.0
 40
59.0
 40
59.0
 40
59.0
 40
60.0
 40
60.0
 40
60.0
 40
61.0
 40
61.0
 40
61.0
 40
62.0
 40
62.0
 40
62.0
 40
63.0
 40
63.0
 40
63.0
 40
64.0
 40
64.0
 40
64.0
 40
65.0
 40
65.0
 40
65.0
 40
66.0
 40
66.0
 40
66.0
 40
67.0
 40
67.0
 40
67.0
 40
68.0
 40
68.0
 40
68.0
 40
69.0
 40
69.0
 40
69.0
 40
70.0
 40
70.0
 40
70.0
 40
71.0
 40
71.0
 40
71.0
 40
72.0
 40
72.0
 40
72.0
 40
73.0
 40
73.0
 40
73.0
 40
74.0
 40
74.0
 40
74.0
 40
75.0
 40
75.0
 40
75.0
 40
76.0
 40
76.0
 40
76.0
 40
77.0
 40
77.0
 40
77.0
 40
78.0
 40
78.0
 40
78.0
 40
79.0
 40
79.0
 40
79.0
 40
80.0
 40
80.0
 40
80.0
 40
81.0
 40
81.0
 40
81.0
 40
82.0
 40
82.0
 40
82.0
 40
83.0
 40
83.0
 40
83.0
 40
84.0
 40
84.0
 40
84.0
 40
85.0
 40
85.0
 40
85.0
 40
86.0
 40
86.0
 40
86.0
 40
87.0
 40
87.0
 40
87.0
 40
88.0
 40
88.0
 40
88.0
 40
89.0
 40
89.0
 40
89.0
 40
90.0
 40
90.0
 40
90.0
 40
91.0
 40
91.0
 40
91.0
 40
92.0
 40
92.0
 40
92.0
 40
93.0
 40
93.0
 40
93.0
 40
94.0
 40
94.0
 40
94.0
 40
95.0
 40
95.0
 40
95.0
 40
96.0
 40
96.0
 40
96.0
 40
97.0
 40
97.0
 40
97.0
 40
98.0
 40
98.0
 40
98.0
 40
99.0
 40
99.0
 40
99.0
 40
100.0
 40
100.0
 40
100.0
 40
101.0
 40
101.0
 40
101.0
 40
102.0
 40
102.0
 40
102.0
 40
103.0
 40
103.0
 40
103.0
 40
104.0
 40
104.0
 40
104.0
 40
105.0
 40
105.0
 40
105.0
 40
106.0
 40
106.0
 40
106.0
 40
107.0
 40
107.0
 40
107.0
 40
108.0
 40
108.0
 40
108.0
 40
109.0
 40
109.0
 40
109.0
 40
110.0
 40
110.0
 40
110.0
 40
111.0
 40
111.0
 40
111.0
 40
112.0
 40
112.0
 40
112.0
 40
113.0
 40
113.0
 40
113.0
 40
114.0
 40
114.0
 40
114.0
 40
115.0
 40
115.0
 40
115.0
 40
116.0
 40
116.0
 40
116.0
 40
117.0
 40
117.0
 40
117.0
 40
118.0
 40
118.0
 40
118.0
 40
119.0
 40
119.0
 40
119.0
 40
120.0
 40
120.0
 40
120.0
 40
121.0
 40
121.0
 40
121.0
 40
122.0
 40
122.0
 40
122.0
 40
123.0
 40
123.0
 40
123.0
 40
124.0
 40
124.0
 40
124.0
 40
125.0
 40
125.0
 40
125.0
 40
126.0
 40
126.0
 40
126.0
 40
127.0
 40
127.0
 40
127.0
 40
128.0
 40
128.0
 40
128.0
 40
129.0
 40
129.0
 40
129.0
 40
130.0
 40
130.0
 40
130.0
 40
131.0
 40
131.0
 40
131.0
 40
132.0
 40
132.0
 40
132.0
 40
133.0
 40
133.0
 40
133.0
 40
134.0
 40
134.0
 40
134.0
 40
135.0
 40
135.0
 40
135.0
 40
136.0
 40
136.0
 40
136.0
 40
137.0
 40
137.0
 40
137.0
 40
138.0
 40
138.0
 40
138.0
 40
139.0
 40
139.0
 40
139.0
 40
140.0
 40
140.0
 40
140.0
 40
141.0
 40
141.0
 40
141.0
 40
142.0
 40
142.0
 40
142.0
 40
143.0
 40
143.0
 40
143.0
 40
144.0
 40
144.0
 40
144.0
 40
145.0
 40
145.0
 40
145.0
 40
146.0
 40
146.0
 40
146.0
 40
147.0
 40
147.0
 40
147.0
 40
148.0
 40
148.0
 40
148.0
 40
148.0
 10
99.07764019553178
 20
611.149015345145
 30
0.0
 10
99.07764019553178
 20
611.149015345145
 30
0.0
 10
90.97412001980229
 20
574.0782452518105
 30
0.0
 10
90.97412001980229
 20
574.0782452518105
 30
0.0
 10
90.97412001980229
 20
574.0782452518105
 30
0.0
 10
86.72607663107919
 20
554.6529459756348
 30
0.0
 10
86.72607663107919
 20
554.6529459756348
 30
0.0
 10
86.72607663107919
 20
554.6529459756348
 30
0.0
 10
73.19238520882663
 20
554.6529459756348
 30
0.0
 10
73.19238520882663
 20
554.6529459756348
 30
0.0
 10
73.19238520882663
 20
554.6529459756348
 30
0.0
 10
68.77002576944869
 20
574.1207199546407
 30
0.0
 10
68.77002576944869
 20
574.1207199546407
 30
0.0
 10
68.77002576944869
 20
574.1207199546407
 30
0.0
 10
60.35742860008577
 20
611.149015345145
 30
0.0
 10
60.35742860008577
 20
611.149015345145
 30
0.0
 10
60.35742860008577
 20
611.149015345145
 30
0.0
 10
37.13379550205264
 20
611.149015345145
 30
0.0
 10
37.13379550205264
 20
611.149015345145
 30
0.0
 10
37.13379550205264
 20
611.149015345145
 30
0.0
 10
28.63037729677581
 20
611.149015345145
 30
0.0
 10
28.63037729677581
 20
611.149015345145
 30
0.0
 10
28.47447091556296
 20
611.149015345145
 30
0.0
 10
28.34619796181505
 20
611.0223265421009
 30
0.0
 10
28.34619796181505
 20
610.8663985342573
 30
0.0
 10
28.34619796181505
 20
610.8663985342573
 30
0.0
 10
28.34619796181505
 20
585.3546733075345
 30
0.0
 10
28.34619796181505
 20
585.3546733075345
 30
0.0
 10
28.34619796181505
 20
585.1987885529524
 30
0.0
 10
28.47447361889135
 20
585.0704993792314
 30
0.0
 10
28.63037729677581
 20
585.0704993792314
 30
0.0
 10
28.63037729677581
 20
585.0704993792314
 30
0.0
 10
36.85107866799808
 20
585.0704993792314
 30
0.0
 10
36.85107866799808
 20
585.0704993792314
 30
0.0
 10
36.85107866799808
 20
585.0704993792314
 30
0.0
 10
36.85107866799808
 20
585.0704993792314
 30
0.0
 10
36.85107866799808
 20
585.0704993792314
 30
0.0
 10
36.85107866799808
 20
585.0704993792314
 30
0.0
 10
36.85107866799808
 20
568.6305402143916
 30
0.0
 10
36.85107866799808
 20
568.6305402143916
 30
0.0
 10
36.85107866799808
 20
568.6305402143916
 30
0.0
 10
36.85107866799808
 20
568.6305402143916
 30
0.0
 10
36.85107866799808
 20
568.6305402143916
 30
0.0
 10
36.85107866799808
 20
568.6305402143916
 30
0.0
 10
28.63037729677581
 20
568.6305402143916
 30
0.0
 10
28.63037729677581
 20
568.6305402143916
 30
0.0
 10
28.47447091556296
 20
568.6305402143916
 30
0.0
 10
28.34619796181505
 20
568.5021212808861
 30
0.0
 10
28.34619796181505
 20
568.3463662860885
 30
0.0
 10
28.34619796181505
 20
568.3463662860885
 30
0.0
 10
28.34619796181505
 20
551.3380592646426
 30
0.0
 10
28.34619796181505
 20
551.3380592646426
 30
0.0
 10
28.34619796181505
 20
551.1821745100605
 30
0.0
 10
28.47447361889135
 20
551.0554424537549
 30
0.0
 10
28.63037729677581
 20
551.0554424537549
 30
0.0
 10
28.63037729677581
 20
551.0554424537549
 30
0.0
 10
36.85107866799808
 20
551.0554424537549
 30
0.0
 10
36.85107866799808
 20
551.0554424537549
 30
0.0
 10
36.85107866799808
 20
551.0554424537549
 30
0.0
 10
36.85107866799808
 20
551.0554424537549
 30
0.0
 10
36.85107866799808
 20
551.0554424537549
 30
0.0
 10
36.85107866799808
 20
551.0554424537549
 30
0.0
 10
36.85107866799808
 20
534.6140559312844
 30
0.0
 10
36.85107866799808
 20
534.6140559312844
 30
0.0
 10
36.85107866799808
 20
534.6140559312844
 30
0.0
 10
36.85107866799808
 20
534.6140559312844
 30
0.0
 10
36.85107866799808
 20
534.6140559312844
 30
0.0
 10
36.85107866799808
 20
534.6140559312844
 30
0.0
 10
28.63037729677581
 20
534.6140559312844
 30
0.0
 10
28.63037729677581
 20
534.6140559312844
 30
0.0
 10
28.47447091556296
 20
534.6140559312844
 30
0.0
 10
28.34619796181505
 20
534.4873671282402
 30
0.0
 10
28.34619796181505
 20
534.3314391203967
 30
0.0
 10
28.34619796181505
 20
534.3314391203967
 30
0.0
 10
28.34619796181505
 20
517.3231320989507
 30
0.0
 10
28.34619796181505
 20
517.3231320989507
 30
0.0
 10
28.34619796181505
 20
517.1672473443686
 30
0.0
 10
28.47447361889135
 20
517.0389149173861
 30
0.0
 10
28.63037729677581
 20
517.0389149173861
 30
0.0
 10
28.63037729677581
 20
517.0389149173861
 30
0.0
 10
36.85107866799808
 20
517.0389149173861
 30
0.0
 10
36.85107866799808
 20
517.0389149173861
 30
0.0
 10
36.85107866799808
 20
517.0389149173861
 30
0.0
 10
36.85107866799808
 20
517.0389149173861
 30
0.0
 10
36.85107866799808
 20
517.0389149173861
 30
0.0
 10
36.85107866799808
 20
517.0389149173861
 30
0.0
 10
36.85107866799808
 20
500.5989990058078
 30
0.0
 10
36.85107866799808
 20
500.5989990058078
 30
0.0
 10
36.85107866799808
 20
500.5989990058078
 30
0.0
 10
36.85107866799808
 20
500.5989990058078
 30
0.0
 10
36.85107866799808
 20
500.5989990058078
 30
0.0
 10
36.85107866799808
 20
500.5989990058078
 30
0.0
 10
28.63037729677581
 20
500.5989990058078
 30
0.0
 10
28.63037729677581
 20
500.5989990058078
 30
0.0
 10
28.47447091556296
 20
500.5989990058078
 30
0.0
 10
28.34619796181505
 20
500.4706233255638
 30
0.0
 10
28.34619796181505
 20
500.3148250775048
 30
0.0
 10
28.34619796181505
 20
500.3148250775048
 30
0.0
 10
28.34619796181505
 20
483.3079886669511
 30
0.0
 10
28.34619796181505
 20
483.3079886669511
 30
0.0
 10
28.34619796181505
 20
483.152103912369
 30
0.0
 10
28.47447361889135
 20
483.023814738648
 30
0.0
 10
28.63037729677581
 20
483.023814738648
 30
0.0
 10
28.63037729677581
 20
483.023814738648
 30
0.0
 10
36.85107866799808
 20
483.023814738648
 30
0.0
 10
36.85107866799808
 20
483.023814738648
 30
0.0
 10
36.85107866799808
 20
483.023814738648
 30
0.0
 10
36.85107866799808
 20
483.023814738648
 30
0.0
 10
36.85107866799808
 20
483.023814738648
 30
0.0
 10
36.85107866799808
 20
483.023814738648
 30
0.0
 10
36.85107866799808
 20
466.5823849629159
 30
0.0
 10
36.85107866799808
 20
466.5823849629159
 30
0.0
 10
36.85107866799808
 20
466.5823849629159
 30
0.0
 10
36.85107866799808
 20
466.5823849629159
 30
0.0
 10
36.85107866799808
 20
466.5823849629159
 30
0.0
 10
36.85107866799808
 20
466.5823849629159
 30
0.0
 10
28.63037729677581
 20
466.5823849629159
 30
0.0
 10
28.63037729677581
 20
466.5823849629159
 30
0.0
 10
28.47447091556296
 20
466.5823849629159
 30
0.0
 10
28.34619796181505
 20
466.4556529066103
 30
0.0
 10
28.34619796181505
 20
466.2997681520282
 30
0.0
 10
28.34619796181505
 20
466.2997681520282
 30
0.0
 10
28.34619796181505
 20
449.2914611305823
 30
0.0
 10
28.34619796181505
 20
449.2914611305823
 30
0.0
 10
28.34619796181505
 20
449.1355763760002
 30
0.0
 10
28.47447361889135
 20
449.0088443196945
 30
0.0
 10
28.63037729677581
 20
449.0088443196945
 30
0.0
 10
28.63037729677581
 20
449.0088443196945
 30
0.0
 10
36.85107866799808
 20
449.0088443196945
 30
0.0
 10
36.85107866799808
 20
449.0088443196945
 30
0.0
 10
36.85107866799808
 20
449.0088443196945
 30
0.0
 10
36.85107866799808
 20
449.0088443196945
 30
0.0
 10
36.85107866799808
 20
449.0088443196945
 30
0.0
 10
36.85107866799808
 20
449.0088443196945
 30
0.0
 10
36.85107866799808
 20
432.5674145439625
 30
0.0
 10
36.85107866799808
 20
432.5674145439625
 30
0.0
 10
36.85107866799808
 20
432.5674145439625
 30
0.0
 10
36.85107866799808
 20
432.5674145439625
 30
0.0
 10
36.85107866799808
 20
432.5674145439625
 30
0.0
 10
36.85107866799808
 20
432.5674145439625
 30
0.0
 10
28.63037729677581
 20
432.5674145439625
 30
0.0
 10
28.63037729677581
 20
432.5674145439625
 30
0.0
 10
28.47447091556296
 20
432.5674145439625
 30
0.0
 10
28.34619796181505
 20
432.4392983832876
 30
0.0
 10
28.34619796181505
 20
432.2832406156594
 30
0.0
 10
28.34619796181505
 20
432.2832406156594
 30
0.0
 10
28.34619796181505
 20
415.2764042051058
 30
0.0
 10
28.34619796181505
 20
415.2764042051058
 30
0.0
 10
28.34619796181505
 20
415.1205194505236
 30
0.0
 10
28.47447361889135
 20
414.9922302768027
 30
0.0
 10
28.63037729677581
 20
414.9922302768027
 30
0.0
 10
28.63037729677581
 20
414.9922302768027
 30
0.0
 10
36.85107866799808
 20
414.9922302768027
 30
0.0
 10
36.85107866799808
 20
414.9922302768027
 30
0.0
 10
36.85107866799808
 20
414.9922302768027
 30
0.0
 10
36.85107866799808
 20
414.9922302768027
 30
0.0
 10
36.85107866799808
 20
414.9922302768027
 30
0.0
 10
36.85107866799808
 20
414.9922302768027
 30
0.0
 10
36.85107866799808
 20
398.5522711119629
 30
0.0
 10
36.85107866799808
 20
398.5522711119629
 30
0.0
 10
36.85107866799808
 20
398.5522711119629
 30
0.0
 10
36.85107866799808
 20
398.5522711119629
 30
0.0
 10
36.85107866799808
 20
398.5522711119629
 30
0.0
 10
36.85107866799808
 20
398.5522711119629
 30
0.0
 10
28.63037729677581
 20
398.5522711119629
 30
0.0
 10
28.63037729677581
 20
398.5522711119629
 30
0.0
 10
28.47447091556296
 20
398.5522711119629
 30
0.0
 10
28.34619796181505
 20
398.4238954317189
 30
0.0
 10
28.34619796181505
 20
398.2680971836598
 30
0.0
 10
28.34619796181505
 20
398.2680971836598
 30
0.0
 10
28.34619796181505
 20
381.2597901622139
 30
0.0
 10
28.34619796181505
 20
381.2597901622139
 30
0.0
 10
28.34619796181505
 20
381.1039054076318
 30
0.0
 10
28.47447361889135
 20
380.9771733513262
 30
0.0
 10
28.63037729677581
 20
380.9771733513262
 30
0.0
 10
28.63037729677581
 20
380.9771733513262
 30
0.0
 10
36.85107866799808
 20
380.9771733513262
 30
0.0
 10
36.85107866799808
 20
380.9771733513262
 30
0.0
 10
36.85107866799808
 20
380.9771733513262
 30
0.0
 10
36.85107866799808
 20
380.9771733513262
 30
0.0
 10
36.85107866799808
 20
380.9771733513262
 30
0.0
 10
36.85107866799808
 20
380.9771733513262
 30
0.0
 10
36.85107866799808
 20
364.5357435755941
 30
0.0
 10
36.85107866799808
 20
364.5357435755941
 30
0.0
 10
36.85107866799808
 20
364.5357435755941
 30
0.0
 10
36.85107866799808
 20
364.5357435755941
 30
0.0
 10
36.85107866799808
 20
364.5357435755941
 30
0.0
 10
36.85107866799808
 20
364.5357435755941
 30
0.0
 10
28.63037729677581
 20
364.5357435755941
 30
0.0
 10
28.63037729677581
 20
364.5357435755941
 30
0.0
 10
28.47447091556296
 20
364.5357435755941
 30
0.0
 10
28.34619796181505
 20
364.4090115192885
 30
0.0
 10
28.34619796181505
 20
364.2531267647064
 30
0.0
 10
28.34619796181505
 20
364.2531267647064
 30
0.0
 10
28.34619796181505
 20
338.7414015379836
 30
0.0
 10
28.34619796181505
 20
338.7414015379836
 30
0.0
 10
28.34619796181505
 20
338.5855167834015
 30
0.0
 10
28.47447361889135
 20
338.4572276096806
 30
0.0
 10
28.63037729677581
 20
338.4572276096806
 30
0.0
 10
28.63037729677581
 20
338.4572276096806
 30
0.0
 10
37.13379550205264
 20
338.4572276096806
 30
0.0
 10
37.13379550205264
 20
338.4572276096806
 30
0.0
 10
37.13379550205264
 20
338.4572276096806
 30
0.0
 10
326.2675915256223
 20
338.4572276096806
 30
0.0
 10
326.2675915256223
 20
338.4572276096806
 30
0.0
 10
326.2675915256223
 20
338.4572276096806
 30
0.0
 10
334.7710097308991
 20
338.4572276096806
 30
0.0
 10
334.7710097308991
 20
338.4572276096806
 30
0.0
 10
334.926916112112
 20
338.4572276096806
 30
0.0
 10
335.0551836592022
 20
338.5856032899246
 30
0.0
 10
335.0551836592022
 20
338.7414015379836
 30
0.0
 10
335.0551836592022
 20
338.7414015379836
 30
0.0
 10
335.0551836592022
 20
364.2531267647064
 30
0.0
 10
335.0551836592022
 20
364.2531267647064
 30
0.0
 10
335.0551836592022
 20
364.4090115192885
 30
0.0
 10
334.9270674985273
 20
364.5357435755941
 30
0.0
 10
334.7710097308991
 20
364.5357435755941
 30
0.0
 10
334.7710097308991
 20
364.5357435755941
 30
0.0
 10
326.5517654539253
 20
364.5357435755941
 30
0.0
 10
326.5517654539253
 20
364.5357435755941
 30
0.0
 10
326.5517654539253
 20
364.5357435755941
 30
0.0
 10
326.5517654539253
 20
364.5357435755941
 30
0.0
 10
326.5517654539253
 20
364.5357435755941
 30
0.0
 10
326.5517654539253
 20
364.5357435755941
 30
0.0
 10
326.5517654539253
 20
380.9771733513262
 30
0.0
 10
326.5517654539253
 20
380.9771733513262
 30
0.0
 10
326.5517654539253
 20
380.9771733513262
 30
0.0
 10
326.5517654539253
 20
380.9771733513262
 30
0.0
 10
326.5517654539253
 20
380.9771733513262
 30
0.0
 10
326.5517654539253
 20
380.9771733513262
 30
0.0
 10
334.7710097308991
 20
380.9771733513262
 30
0.0
 10
334.7710097308991
 20
380.9771733513262
 30
0.0
 10
334.926916112112
 20
380.9771733513262
 30
0.0
 10
335.0551836592022
 20
381.1039054076318
 30
0.0
 10
335.0551836592022
 20
381.2597901622139
 30
0.0
 10
335.0551836592022
 20
381.2597901622139
 30
0.0
 10
335.0551836592022
 20
398.2680971836598
 30
0.0
 10
335.0551836592022
 20
398.2680971836598
 30
0.0
 10
335.0551836592022
 20
398.4239819382419
 30
0.0
 10
334.9270674985273
 20
398.5522711119629
 30
0.0
 10
334.7710097308991
 20
398.5522711119629
 30
0.0
 10
334.7710097308991
 20
398.5522711119629
 30
0.0
 10
326.5517654539253
 20
398.5522711119629
 30
0.0
 10
326.5517654539253
 20
398.5522711119629
 30
0.0
 10
326.5517654539253
 20
398.5522711119629
 30
0.0
 10
326.5517654539253
 20
398.5522711119629
 30
0.0
 10
326.5517654539253
 20
398.5522711119629
 30
0.0
 10
326.5517654539253
 20
398.5522711119629
 30
0.0
 10
326.5517654539253
 20
414.9922302768027
 30
0.0
 10
326.5517654539253
 20
414.9922302768027
 30
0.0
 10
326.5517654539253
 20
414.9922302768027
 30
0.0
 10
326.5517654539253
 20
414.9922302768027
 30
0.0
 10
326.5517654539253
 20
414.9922302768027
 30
0.0
 10
326.5517654539253
 20
414.9922302768027
 30
0.0
 10
334.7710097308991
 20
414.9922302768027
 30
0.0
 10
334.7710097308991
 20
414.9922302768027
 30
0.0
 10
334.926916112112
 20
414.9922302768027
 30
0.0
 10
335.0551836592022
 20
415.1206059570467
 30
0.0
 10
335.0551836592022
 20
415.2764042051058
 30
0.0
 10
335.0551836592022
 20
415.2764042051058
 30
0.0
 10
335.0551836592022
 20
432.2832406156594
 30
0.0
 10
335.0551836592022
 20
432.2832406156594
 30
0.0
 10
335.0551836592022
 20
432.4391253702414
 30
0.0
 10
334.9270674985273
 20
432.5674145439625
 30
0.0
 10
334.7710097308991
 20
432.5674145439625
 30
0.0
 10
334.7710097308991
 20
432.5674145439625
 30
0.0
 10
326.5517654539253
 20
432.5674145439625
 30
0.0
 10
326.5517654539253
 20
432.5674145439625
 30
0.0
 10
326.5517654539253
 20
432.5674145439625
 30
0.0
 10
326.5517654539253
 20
432.5674145439625
 30
0.0
 10
326.5517654539253
 20
432.5674145439625
 30
0.0
 10
326.5517654539253
 20
432.5674145439625
 30
0.0
 10
326.5517654539253
 20
449.0088443196945
 30
0.0
 10
326.5517654539253
 20
449.0088443196945
 30
0.0
 10
326.5517654539253
 20
449.0088443196945
 30
0.0
 10
326.5517654539253
 20
449.0088443196945
 30
0.0
 10
326.5517654539253
 20
449.0088443196945
 30
0.0
 10
326.5517654539253
 20
449.0088443196945
 30
0.0
 10
334.7710097308991
 20
449.0088443196945
 30
0.0
 10
334.7710097308991
 20
449.0088443196945
 30
0.0
 10
334.926916112112
 20
449.0088443196945
 30
0.0
 10
335.0551836592022
 20
449.1355763760002
 30
0.0
 10
335.0551836592022
 20
449.2914611305823
 30
0.0
 10
335.0551836592022
 20
449.2914611305823
 30
0.0
 10
335.0551836592022
 20
466.2997681520282
 30
0.0
 10
335.0551836592022
 20
466.2997681520282
 30
0.0
 10
335.0551836592022
 20
466.4556529066103
 30
0.0
 10
334.9270674985273
 20
466.5823849629159
 30
0.0
 10
334.7710097308991
 20
466.5823849629159
 30
0.0
 10
334.7710097308991
 20
466.5823849629159
 30
0.0
 10
326.5517654539253
 20
466.5823849629159
 30
0.0
 10
326.5517654539253
 20
466.5823849629159
 30
0.0
 10
326.5517654539253
 20
466.5823849629159
 30
0.0
 10
326.5517654539253
 20
466.5823849629159
 30
0.0
 10
326.5517654539253
 20
466.5823849629159
 30
0.0
 10
326.5517654539253
 20
466.5823849629159
 30
0.0
 10
326.5517654539253
 20
483.023814738648
 30
0.0
 10
326.5517654539253
 20
483.023814738648
 30
0.0
 10
326.5517654539253
 20
483.023814738648
 30
0.0
 10
326.5517654539253
 20
483.023814738648
 30
0.0
 10
326.5517654539253
 20
483.023814738648
 30
0.0
 10
326.5517654539253
 20
483.023814738648
 30
0.0
 10
334.7710097308991
 20
483.023814738648
 30
0.0
 10
334.7710097308991
 20
483.023814738648
 30
0.0
 10
334.926916112112
 20
483.023814738648
 30
0.0
 10
335.0551836592022
 20
483.1521904188921
 30
0.0
 10
335.0551836592022
 20
483.3079886669511
 30
0.0
 10
335.0551836592022
 20
483.3079886669511
 30
0.0
 10
335.0551836592022
 20
500.3148250775048
 30
0.0
 10
335.0551836592022
 20
500.3148250775048
 30
0.0
 10
335.0551836592022
 20
500.4707098320868
 30
0.0
 10
334.9270674985273
 20
500.5989990058078
 30
0.0
 10
334.7710097308991
 20
500.5989990058078
 30
0.0
 10
334.7710097308991
 20
500.5989990058078
 30
0.0
 10
326.5517654539253
 20
500.5989990058078
 30
0.0
 10
326.5517654539253
 20
500.5989990058078
 30
0.0
 10
326.5517654539253
 20
500.5989990058078
 30
0.0
 10
326.5517654539253
 20
500.5989990058078
 30
0.0
 10
326.5517654539253
 20
500.5989990058078
 30
0.0
 10
326.5517654539253
 20
500.5989990058078
 30
0.0
 10
326.5517654539253
 20
517.0389149173861
 30
0.0
 10
326.5517654539253
 20
517.0389149173861
 30
0.0
 10
326.5517654539253
 20
517.0389149173861
 30
0.0
 10
326.5517654539253
 20
517.0389149173861
 30
0.0
 10
326.5517654539253
 20
517.0389149173861
 30
0.0
 10
326.5517654539253
 20
517.0389149173861
 30
0.0
 10
334.7710097308991
 20
517.0389149173861
 30
0.0
 10
334.7710097308991
 20
517.0389149173861
 30
0.0
 10
334.926916112112
 20
517.0389149173861
 30
0.0
 10
335.0551836592022
 20
517.1673338508917
 30
0.0
 10
335.0551836592022
 20
517.3231320989507
 30
0.0
 10
335.0551836592022
 20
517.3231320989507
 30
0.0
 10
335.0551836592022
 20
534.3314391203967
 30
0.0
 10
335.0551836592022
 20
534.3314391203967
 30
0.0
 10
335.0551836592022
 20
534.4873238749787
 30
0.0
 10
334.9270674985273
 20
534.6140559312844
 30
0.0
 10
334.7710097308991
 20
534.6140559312844
 30
0.0
 10
334.7710097308991
 20
534.6140559312844
 30
0.0
 10
326.5517654539253
 20
534.6140559312844
 30
0.0
 10
326.5517654539253
 20
534.6140559312844
 30
0.0
 10
326.5517654539253
 20
534.6140559312844
 30
0.0
 10
326.5517654539253
 20
534.6140559312844
 30
0.0
 10
326.5517654539253
 20
534.6140559312844
 30
0.0
 10
326.5517654539253
 20
534.6140559312844
 30
0.0
 10
326.5517654539253
 20
551.0554424537549
 30
0.0
 10
326.5517654539253
 20
551.0554424537549
 30
0.0
 10
326.5517654539253
 20
551.0554424537549
 30
0.0
 10
326.5517654539253
 20
551.0554424537549
 30
0.0
 10
326.5517654539253
 20
551.0554424537549
 30
0.0
 10
326.5517654539253
 20
551.0554424537549
 30
0.0
 10
334.7710097308991
 20
551.0554424537549
 30
0.0
 10
334.7710097308991
 20
551.0554424537549
 30
0.0
 10
334.926916112112
 20
551.0554424537549
 30
0.0
 10
335.0551836592022
 20
551.182131256799
 30
0.0
 10
335.0551836592022
 20
551.3380592646426
 30
0.0
 10
335.0551836592022
 20
551.3380592646426
 30
0.0
 10
335.0551836592022
 20
568.3463662860885
 30
0.0
 10
335.0551836592022
 20
568.3463662860885
 30
0.0
 10
335.0551836592022
 20
568.5022510406707
 30
0.0
 10
334.9270674985273
 20
568.6305402143916
 30
0.0
 10
334.7710097308991
 20
568.6305402143916
 30
0.0
 10
334.7710097308991
 20
568.6305402143916
 30
0.0
 10
326.5517654539253
 20
568.6305402143916
 30
0.0
 10
326.5517654539253
 20
568.6305402143916
 30
0.0
 10
326.5517654539253
 20
568.6305402143916
 30
0.0
 10
326.5517654539253
 20
568.6305402143916
 30
0.0
 10
326.5517654539253
 20
568.6305402143916
 30
0.0
 10
326.5517654539253
 20
568.6305402143916
 30
0.0
 10
326.5517654539253
 20
585.0704993792314
 30
0.0
 10
326.5517654539253
 20
585.0704993792314
 30
0.0
 10
326.5517654539253
 20
585.0704993792314
 30
0.0
 10
326.5517654539253
 20
585.0704993792314
 30
0.0
 10
326.5517654539253
 20
585.0704993792314
 30
0.0
 10
326.5517654539253
 20
585.0704993792314
 30
0.0
 10
334.7710097308991
 20
585.0704993792314
 30
0.0
 10
334.7710097308991
 20
585.0704993792314
 30
0.0
 10
334.926916112112
 20
585.0704993792314
 30
0.0
 10
335.0551836592022
 20
585.198918312737
 30
0.0
 10
335.0551836592022
 20
585.3546733075345
 30
0.0
 10
335.0551836592022
 20
585.3546733075345
 30
0.0
 10
335.0551836592022
 20
610.8663985342573
 30
0.0
 10
335.0551836592022
 20
610.8663985342573
 30
0.0
 10
335.0551836592022
 20
611.0222832888394
 30
0.0
 10
334.9270674985273
 20
611.149015345145
 30
0.0
 10
334.7710097308991
 20
611.149015345145
 30
0.0
 10
334.7710097308991
 20
611.149015345145
 30
0.0
 10
326.2675915256223
 20
611.149015345145
 30
0.0
 10
326.2675915256223
 20
611.149015345145
 30
0.0
 10
326.2675915256223
 20
611.149015345145
 30
0.0
 10
303.1728585536293
 20
611.149015345145
 30
0.0
 10
303.1728585536293
 20
611.149015345145
 30
0.0
 10
303.1728585536293
 20
611.149015345145
 30
0.0
 10
295.0678893936384
 20
574.0782452518105
 30
0.0
 10
295.0678893936384
 20
574.0782452518105
 30
0.0
 10
295.0678893936384
 20
574.0782452518105
 30
0.0
 10
290.8213058024921
 20
554.6529459756348
 30
0.0
 10
290.8213058024921
 20
554.6529459756348
 30
0.0
 10
290.8213058024921
 20
554.6529459756348
 30
0.0
 10
277.2876197868973
 20
554.6529459756348
 30
0.0
 10
277.2876197868973
 20
554.6529459756348
 30
0.0
 10
277.2876197868973
 20
554.6529459756348
 30
0.0
 10
272.8652549408616
 20
574.1207199546407
 30
0.0
 10
272.8652549408616
 20
574.1207199546407
 30
0.0
 10
272.8652549408616
 20
574.1207199546407
 30
0.0
 10
264.4526685848141
 20
611.149015345145
 30
0.0
 10
264.4526685848141
 20
611.149015345145
 30
0.0
 10
264.4526685848141
 20
611.149015345145
 30
0.0
 10
235.1411227053686
 20
611.149015345145
 30
0.0
 10
235.1411227053686
 20
611.149015345145
 30
0.0
 10
235.1411227053686
 20
611.149015345145
 30
0.0
 10
227.0361319187468
 20
574.0782452518105
 30
0.0
 10
227.0361319187468
 20
574.0782452518105
 30
0.0
 10
227.0361319187468
 20
574.0782452518105
 30
0.0
 10
222.7895483276006
 20
554.6529459756348
 30
0.0
 10
222.7895483276006
 20
554.6529459756348
 30
0.0
 10
222.7895483276006
 20
554.6529459756348
 30
0.0
 10
209.2558623120058
 20
554.6529459756348
 30
0.0
 10
209.2558623120058
 20
554.6529459756348
 30
0.0
 10
209.2558623120058
 20
554.6529459756348
 30
0.0
 10
204.8334974659701
 20
574.1207199546407
 30
0.0
 10
204.8334974659701
 20
574.1207199546407
 30
0.0
 10
204.8334974659701
 20
574.1207199546407
 30
0.0
 10
196.4208894832918
 20
611.149015345145
 30
0.0
 10
196.4208894832918
 20
611.149015345145
 30
0.0
 10
196.4208894832918
 20
611.149015345145
 30
0.0
 10
167.1093760437925
 20
611.149015345145
 30
0.0
 10
167.1093760437925
 20
611.149015345145
 30
0.0
 10
167.1093760437925
 20
611.149015345145
 30
0.0
 10
159.0043960704861
 20
574.0782452518105
 30
0.0
 10
159.0043960704861
 20
574.0782452518105
 30
0.0
 10
159.0043960704861
 20
574.0782452518105
 30
0.0
 10
154.7578124793399
 20
554.6529459756348
 30
0.0
 10
154.7578124793399
 20
554.6529459756348
 30
0.0
 10
154.7578124793399
 20
554.6529459756348
 30
0.0
 10
141.224126463745
 20
554.6529459756348
 30
0.0
 10
141.224126463745
 20
554.6529459756348
 30
0.0
 10
141.224126463745
 20
554.6529459756348
 30
0.0
 10
136.8017616177094
 20
574.1207199546407
 30
0.0
 10
136.8017616177094
 20
574.1207199546407
 30
0.0
 10
136.8017616177094
 20
574.1207199546407
 30
0.0
 10
128.3891644483465
 20
611.149015345145
 30
0.0
 10
128.3891644483465
 20
611.149015345145
 30
0.0
 10
128.3891644483465
 20
611.149015345145
 30
0.0
 10
99.07764019553178
 20
611.149015345145
 30
0.0
 10
99.07764019553178
 20
611.149015345145
 30
0.0
  0
SPLINE
  5
B4
330
A7
100
AcDbEntity
  8
svg38
 62
   250
420
  2299925
370
    20
100
AcDbSpline
210
0.0
220
0.0
230
1.0
 70
    11
 71
     3
 72
    17
 73
    13
 74
     0
 42
0.0000000001
 43
0.0000000001
 40
0.0
 40
0.0
 40
0.0
 40
0.0
 40
1.0
 40
1.0
 40
1.0
 40
2.0
 40
2.0
 40
2.0
 40
3.0
 40
3.0
 40
3.0
 40
4.0
 40
4.0
 40
4.0
 40
4.0
 10
59.84487204420566
 20
468.2495386756272
 30
0.0
 10
59.84487204420566
 20
468.2495386756272
 30
0.0
 10
149.9189079113803
 20
468.2495386756272
 30
0.0
 10
149.9189079113803
 20
468.2495386756272
 30
0.0
 10
149.9189079113803
 20
468.2495386756272
 30
0.0
 10
149.9189079113803
 20
423.5298185586944
 30
0.0
 10
149.9189079113803
 20
423.5298185586944
 30
0.0
 10
149.9189079113803
 20
423.5298185586944
 30
0.0
 10
59.84487204420566
 20
423.5298185586944
 30
0.0
 10
59.84487204420566
 20
423.5298185586944
 30
0.0
 10
59.84487204420566
 20
423.5298185586944
 30
0.0
 10
59.84487204420566
 20
468.2495386756272
 30
0.0
 10
59.84487204420566
 20
468.2495386756272
 30
0.0
  0
SPLINE
  5
B5
330
A7
100
AcDbEntity
  8
svg38
 62
   250
420
  2299925
370
    20
100
AcDbSpline
210
0.0
220
0.0
230
1.0
 70
    11
 71
     3
 72
    17
 73
    13
 74
     0
 42
0.0000000001
 43
0.0000000001
 40
0.0
 40
0.0
 40
0.0
 40
0.0
 40
1.0
 40
1.0
 40
1.0
 40
2.0
 40
2.0
 40
2.0
 40
3.0
 40
3.0
 40
3.0
 40
4.0
 40
4.0
 40
4.0
 40
4.0
 10
213.4826791626292
 20
468.2495386756272
 30
0.0
 10
213.4826791626292
 20
468.2495386756272
 30
0.0
 10
303.5567096231462
 20
468.2495386756272
 30
0.0
 10
303.5567096231462
 20
468.2495386756272
 30
0.0
 10
303.5567096231462
 20
468.2495386756272
 30
0.0
 10
303.5567096231462
 20
423.5298185586944
 30
0.0
 10
303.5567096231462
 20
423.5298185586944
 30
0.0
 10
303.5567096231462
 20
423.5298185586944
 30
0.0
 10
213.4826791626292
 20
423.5298185586944
 30
0.0
 10
213.4826791626292
 20
423.5298185586944
 30
0.0
 10
213.4826791626292
 20
423.5298185586944
 30
0.0
 10
213.4826791626292
 20
468.2495386756272
 30
0.0
 10
213.4826791626292
 20
468.2495386756272
 30
0.0
  0
SPLINE
  5
B6
330
A7
100
AcDbEntity
  8
svg38
 62
   250
420
  2299925
370
    20
100
AcDbSpline
210
0.0
220
0.0
230
1.0
 70
    11
 71
     3
 72
    17
 73
    13
 74
     0
 42
0.0000000001
 43
0.0000000001
 40
0.0
 40
0.0
 40
0.0
 40
0.0
 40
1.0
 40
1.0
 40
1.0
 40
2.0
 40
2.0
 40
2.0
 40
3.0
 40
3.0
 40
3.0
 40
4.0
 40
4.0
 40
4.0
 40
4.0
 10
159.3158519935041
 20
524.9675837833492
 30
0.0
 10
159.3158519935041
 20
524.9675837833492
 30
0.0
 10
170.0699861028442
 20
524.9675837833492
 30
0.0
 10
170.0699861028442
 20
524.9675837833492
 30
0.0
 10
170.0699861028442
 20
524.9675837833492
 30
0.0
 10
170.0699861028442
 20
491.5363161288478
 30
0.0
 10
170.0699861028442
 20
491.5363161288478
 30
0.0
 10
170.0699861028442
 20
491.5363161288478
 30
0.0
 10
159.3158519935041
 20
491.5363161288478
 30
0.0
 10
159.3158519935041
 20
491.5363161288478
 30
0.0
 10
159.3158519935041
 20
491.5363161288478
 30
0.0
 10
159.3158519935041
 20
524.9675837833492
 30
0.0
 10
159.3158519935041
 20
524.9675837833492
 30
0.0
  0
SPLINE
  5
B7
330
A7
100
AcDbEntity
  8
svg38
 62
   250
420
  2299925
370
    20
100
AcDbSpline
210
0.0
220
0.0
230
1.0
 70
    11
 71
     3
 72
    17
 73
    13
 74
     0
 42
0.0000000001
 43
0.0000000001
 40
0.0
 40
0.0
 40
0.0
 40
0.0
 40
1.0
 40
1.0
 40
1.0
 40
2.0
 40
2.0
 40
2.0
 40
3.0
 40
3.0
 40
3.0
 40
4.0
 40
4.0
 40
4.0
 40
4.0
 10
193.3316117844806
 20
524.9675837833492
 30
0.0
 10
193.3316117844806
 20
524.9675837833492
 30
0.0
 10
204.0857350805054
 20
524.9675837833492
 30
0.0
 10
204.0857350805054
 20
524.9675837833492
 30
0.0
 10
204.0857350805054
 20
524.9675837833492
 30
0.0
 10
204.0857350805054
 20
491.5363161288478
 30
0.0
 10
204.0857350805054
 20
491.5363161288478
 30
0.0
 10
204.0857350805054
 20
491.5363161288478
 30
0.0
 10
193.3316117844806
 20
491.5363161288478
 30
0.0
 10
193.3316117844806
 20
491.5363161288478
 30
0.0
 10
193.3316117844806
 20
491.5363161288478
 30
0.0
 10
193.3316117844806
 20
524.9675837833492
 30
0.0
 10
193.3316117844806
 20
524.9675837833492
 30
0.0
  0
ENDBLK
  5
AA
330
A7
100
AcDbEntity
  8
0
100
AcDbBlockEnd
  0
ENDSEC
  0
SECTION
  2
ENTITIES
  0
INSERT
  5
7A
330
70
100
AcDbEntity
  8
svg38
100
AcDbBlockReference
  2
Block_0
 10
0.0
 20
0.0
 30
0.0
  0
INSERT
  5
7E
330
70
100
AcDbEntity
  8
svg38
100
AcDbBlockReference
  2
Block_1
 10
0.0
 20
0.0
 30
0.0
  0
SPLINE
  5
8A
330
70
100
AcDbEntity
  8
svg38
 62
   250
420
  2299925
370
    20
100
AcDbSpline
210
0.0
220
0.0
230
1.0
 70
     9
 71
     3
 72
   797
 73
   793
 74
     0
 42
0.0000000001
 43
0.0000000001
 40
0.0
 40
0.0
 40
0.0
 40
0.0
 40
1.0
 40
1.0
 40
1.0
 40
2.0
 40
2.0
 40
2.0
 40
3.0
 40
3.0
 40
3.0
 40
4.0
 40
4.0
 40
4.0
 40
5.0
 40
5.0
 40
5.0
 40
6.0
 40
6.0
 40
6.0
 40
7.0
 40
7.0
 40
7.0
 40
8.0
 40
8.0
 40
8.0
 40
9.0
 40
9.0
 40
9.0
 40
10.0
 40
10.0
 40
10.0
 40
11.0
 40
11.0
 40
11.0
 40
12.0
 40
12.0
 40
12.0
 40
13.0
 40
13.0
 40
13.0
 40
14.0
 40
14.0
 40
14.0
 40
15.0
 40
15.0
 40
15.0
 40
16.0
 40
16.0
 40
16.0
 40
17.0
 40
17.0
 40
17.0
 40
18.0
 40
18.0
 40
18.0
 40
19.0
 40
19.0
 40
19.0
 40
20.0
 40
20.0
 40
20.0
 40
21.0
 40
21.0
 40
21.0
 40
22.0
 40
22.0
 40
22.0
 40
23.0
 40
23.0
 40
23.0
 40
24.0
 40
24.0
 40
24.0
 40
25.0
 40
25.0
 40
25.0
 40
26.0
 40
26.0
 40
26.0
 40
27.0
 40
27.0
 40
27.0
 40
28.0
 40
28.0
 40
28.0
 40
29.0
 40
29.0
 40
29.0
 40
30.0
 40
30.0
 40
30.0
 40
31.0
 40
31.0
 40
31.0
 40
32.0
 40
32.0
 40
32.0
 40
33.0
 40
33.0
 40
33.0
 40
34.0
 40
34.0
 40
34.0
 40
35.0
 40
35.0
 40
35.0
 40
36.0
 40
36.0
 40
36.0
 40
37.0
 40
37.0
 40
37.0
 40
38.0
 40
38.0
 40
38.0
 40
39.0
 40
39.0
 40
39.0
 40
40.0
 40
40.0
 40
40.0
 40
41.0
 40
41.0
 40
41.0
 40
42.0
 40
42.0
 40
42.0
 40
43.0
 40
43.0
 40
43.0
 40
44.0
 40
44.0
 40
44.0
 40
45.0
 40
45.0
 40
45.0
 40
46.0
 40
46.0
 40
46.0
 40
47.0
 40
47.0
 40
47.0
 40
48.0
 40
48.0
 40
48.0
 40
49.0
 40
49.0
 40
49.0
 40
50.0
 40
50.0
 40
50.0
 40
51.0
 40
51.0
 40
51.0
 40
52.0
 40
52.0
 40
52.0
 40
53.0
 40
53.0
 40
53.0
 40
54.0
 40
54.0
 40
54.0
 40
55.0
 40
55.0
 40
55.0
 40
56.0
 40
56.0
 40
56.0
 40
57.0
 40
57.0
 40
57.0
 40
58.0
 40
58.0
 40
58.0
 40
59.0
 40
59.0
 40
59.0
 40
60.0
 40
60.0
 40
60.0
 40
61.0
 40
61.0
 40
61.0
 40
62.0
 40
62.0
 40
62.0
 40
63.0
 40
63.0
 40
63.0
 40
64.0
 40
64.0
 40
64.0
 40
65.0
 40
65.0
 40
65.0
 40
66.0
 40
66.0
 40
66.0
 40
67.0
 40
67.0
 40
67.0
 40
68.0
 40
68.0
 40
68.0
 40
69.0
 40
69.0
 40
69.0
 40
70.0
 40
70.0
 40
70.0
 40
71.0
 40
71.0
 40
71.0
 40
72.0
 40
72.0
 40
72.0
 40
73.0
 40
73.0
 40
73.0
 40
74.0
 40
74.0
 40
74.0
 40
75.0
 40
75.0
 40
75.0
 40
76.0
 40
76.0
 40
76.0
 40
77.0
 40
77.0
 40
77.0
 40
78.0
 40
78.0
 40
78.0
 40
79.0
 40
79.0
 40
79.0
 40
80.0
 40
80.0
 40
80.0
 40
81.0
 40
81.0
 40
81.0
 40
82.0
 40
82.0
 40
82.0
 40
83.0
 40
83.0
 40
83.0
 40
84.0
 40
84.0
 40
84.0
 40
85.0
 40
85.0
 40
85.0
 40
86.0
 40
86.0
 40
86.0
 40
87.0
 40
87.0
 40
87.0
 40
88.0
 40
88.0
 40
88.0
 40
89.0
 40
89.0
 40
89.0
 40
90.0
 40
90.0
 40
90.0
 40
91.0
 40
91.0
 40
91.0
 40
92.0
 40
92.0
 40
92.0
 40
93.0
 40
93.0
 40
93.0
 40
94.0
 40
94.0
 40
94.0
 40
95.0
 40
95.0
 40
95.0
 40
96.0
 40
96.0
 40
96.0
 40
97.0
 40
97.0
 40
97.0
 40
98.0
 40
98.0
 40
98.0
 40
99.0
 40
99.0
 40
99.0
 40
100.0
 40
100.0
 40
100.0
 40
101.0
 40
101.0
 40
101.0
 40
102.0
 40
102.0
 40
102.0
 40
103.0
 40
103.0
 40
103.0
 40
104.0
 40
104.0
 40
104.0
 40
105.0
 40
105.0
 40
105.0
 40
106.0
 40
106.0
 40
106.0
 40
107.0
 40
107.0
 40
107.0
 40
108.0
 40
108.0
 40
108.0
 40
109.0
 40
109.0
 40
109.0
 40
110.0
 40
110.0
 40
110.0
 40
111.0
 40
111.0
 40
111.0
 40
112.0
 40
112.0
 40
112.0
 40
113.0
 40
113.0
 40
113.0
 40
114.0
 40
114.0
 40
114.0
 40
115.0
 40
115.0
 40
115.0
 40
116.0
 40
116.0
 40
116.0
 40
117.0
 40
117.0
 40
117.0
 40
118.0
 40
118.0
 40
118.0
 40
119.0
 40
119.0
 40
119.0
 40
120.0
 40
120.0
 40
120.0
 40
121.0
 40
121.0
 40
121.0
 40
122.0
 40
122.0
 40
122.0
 40
123.0
 40
123.0
 40
123.0
 40
124.0
 40
124.0
 40
124.0
 40
125.0
 40
125.0
 40
125.0
 40
126.0
 40
126.0
 40
126.0
 40
127.0
 40
127.0
 40
127.0
 40
128.0
 40
128.0
 40
128.0
 40
129.0
 40
129.0
 40
129.0
 40
130.0
 40
130.0
 40
130.0
 40
131.0
 40
131.0
 40
131.0
 40
132.0
 40
132.0
 40
132.0
 40
133.0
 40
133.0
 40
133.0
 40
134.0
 40
134.0
 40
134.0
 40
135.0
 40
135.0
 40
135.0
 40
136.0
 40
136.0
 40
136.0
 40
137.0
 40
137.0
 40
137.0
 40
138.0
 40
138.0
 40
138.0
 40
139.0
 40
139.0
 40
139.0
 40
140.0
 40
140.0
 40
140.0
 40
141.0
 40
141.0
 40
141.0
 40
142.0
 40
142.0
 40
142.0
 40
143.0
 40
143.0
 40
143.0
 40
144.0
 40
144.0
 40
144.0
 40
145.0
 40
145.0
 40
145.0
 40
146.0
 40
146.0
 40
146.0
 40
147.0
 40
147.0
 40
147.0
 40
148.0
 40
148.0
 40
148.0
 40
149.0
 40
149.0
 40
149.0
 40
150.0
 40
150.0
 40
150.0
 40
151.0
 40
151.0
 40
151.0
 40
152.0
 40
152.0
 40
152.0
 40
153.0
 40
153.0
 40
153.0
 40
154.0
 40
154.0
 40
154.0
 40
155.0
 40
155.0
 40
155.0
 40
156.0
 40
156.0
 40
156.0
 40
157.0
 40
157.0
 40
157.0
 40
158.0
 40
158.0
 40
158.0
 40
159.0
 40
159.0
 40
159.0
 40
160.0
 40
160.0
 40
160.0
 40
161.0
 40
161.0
 40
161.0
 40
162.0
 40
162.0
 40
162.0
 40
163.0
 40
163.0
 40
163.0
 40
164.0
 40
164.0
 40
164.0
 40
165.0
 40
165.0
 40
165.0
 40
166.0
 40
166.0
 40
166.0
 40
167.0
 40
167.0
 40
167.0
 40
168.0
 40
168.0
 40
168.0
 40
169.0
 40
169.0
 40
169.0
 40
170.0
 40
170.0
 40
170.0
 40
171.0
 40
171.0
 40
171.0
 40
172.0
 40
172.0
 40
172.0
 40
173.0
 40
173.0
 40
173.0
 40
174.0
 40
174.0
 40
174.0
 40
175.0
 40
175.0
 40
175.0
 40
176.0
 40
176.0
 40
176.0
 40
177.0
 40
177.0
 40
177.0
 40
178.0
 40
178.0
 40
178.0
 40
179.0
 40
179.0
 40
179.0
 40
180.0
 40
180.0
 40
180.0
 40
181.0
 40
181.0
 40
181.0
 40
182.0
 40
182.0
 40
182.0
 40
183.0
 40
183.0
 40
183.0
 40
184.0
 40
184.0
 40
184.0
 40
185.0
 40
185.0
 40
185.0
 40
186.0
 40
186.0
 40
186.0
 40
187.0
 40
187.0
 40
187.0
 40
188.0
 40
188.0
 40
188.0
 40
189.0
 40
189.0
 40
189.0
 40
190.0
 40
190.0
 40
190.0
 40
191.0
 40
191.0
 40
191.0
 40
192.0
 40
192.0
 40
192.0
 40
193.0
 40
193.0
 40
193.0
 40
194.0
 40
194.0
 40
194.0
 40
195.0
 40
195.0
 40
195.0
 40
196.0
 40
196.0
 40
196.0
 40
197.0
 40
197.0
 40
197.0
 40
198.0
 40
198.0
 40
198.0
 40
199.0
 40
199.0
 40
199.0
 40
200.0
 40
200.0
 40
200.0
 40
201.0
 40
201.0
 40
201.0
 40
202.0
 40
202.0
 40
202.0
 40
203.0
 40
203.0
 40
203.0
 40
204.0
 40
204.0
 40
204.0
 40
205.0
 40
205.0
 40
205.0
 40
206.0
 40
206.0
 40
206.0
 40
207.0
 40
207.0
 40
207.0
 40
208.0
 40
208.0
 40
208.0
 40
209.0
 40
209.0
 40
209.0
 40
210.0
 40
210.0
 40
210.0
 40
211.0
 40
211.0
 40
211.0
 40
212.0
 40
212.0
 40
212.0
 40
213.0
 40
213.0
 40
213.0
 40
214.0
 40
214.0
 40
214.0
 40
215.0
 40
215.0
 40
215.0
 40
216.0
 40
216.0
 40
216.0
 40
217.0
 40
217.0
 40
217.0
 40
218.0
 40
218.0
 40
218.0
 40
219.0
 40
219.0
 40
219.0
 40
220.0
 40
220.0
 40
220.0
 40
221.0
 40
221.0
 40
221.0
 40
222.0
 40
222.0
 40
222.0
 40
223.0
 40
223.0
 40
223.0
 40
224.0
 40
224.0
 40
224.0
 40
225.0
 40
225.0
 40
225.0
 40
226.0
 40
226.0
 40
226.0
 40
227.0
 40
227.0
 40
227.0
 40
228.0
 40
228.0
 40
228.0
 40
229.0
 40
229.0
 40
229.0
 40
230.0
 40
230.0
 40
230.0
 40
231.0
 40
231.0
 40
231.0
 40
232.0
 40
232.0
 40
232.0
 40
233.0
 40
233.0
 40
233.0
 40
234.0
 40
234.0
 40
234.0
 40
235.0
 40
235.0
 40
235.0
 40
236.0
 40
236.0
 40
236.0
 40
237.0
 40
237.0
 40
237.0
 40
238.0
 40
238.0
 40
238.0
 40
239.0
 40
239.0
 40
239.0
 40
240.0
 40
240.0
 40
240.0
 40
241.0
 40
241.0
 40
241.0
 40
242.0
 40
242.0
 40
242.0
 40
243.0
 40
243.0
 40
243.0
 40
244.0
 40
244.0
 40
244.0
 40
245.0
 40
245.0
 40
245.0
 40
246.0
 40
246.0
 40
246.0
 40
247.0
 40
247.0
 40
247.0
 40
248.0
 40
248.0
 40
248.0
 40
249.0
 40
249.0
 40
249.0
 40
250.0
 40
250.0
 40
250.0
 40
251.0
 40
251.0
 40
251.0
 40
252.0
 40
252.0
 40
252.0
 40
253.0
 40
253.0
 40
253.0
 40
254.0
 40
254.0
 40
254.0
 40
255.0
 40
255.0
 40
255.0
 40
256.0
 40
256.0
 40
256.0
 40
257.0
 40
257.0
 40
257.0
 40
258.0
 40
258.0
 40
258.0
 40
259.0
 40
259.0
 40
259.0
 40
260.0
 40
260.0
 40
260.0
 40
261.0
 40
261.0
 40
261.0
 40
262.0
 40
262.0
 40
262.0
 40
263.0
 40
263.0
 40
263.0
 40
264.0
 40
264.0
 40
264.0
 40
264.0
 10
37.13386038194494
 20
623.9054835041679
 30
0.0
 10
37.13386038194494
 20
623.9054835041679
 30
0.0
 10
53.85826921463013
 20
623.9054835041679
 30
0.0
 10
53.85826921463013
 20
623.9054835041679
 30
0.0
 10
54.14173487077551
 20
623.9054835041679
 30
0.0
 10
53.85826921463013
 20
624.1889437536556
 30
0.0
 10
53.85826921463013
 20
623.9054835041679
 30
0.0
 10
53.85826921463013
 20
623.9054835041679
 30
0.0
 10
53.85826921463013
 20
615.6850065092403
 30
0.0
 10
53.85826921463013
 20
615.6850065092403
 30
0.0
 10
53.85826921463013
 20
615.5291001280275
 30
0.0
 10
53.98582848956266
 20
615.4015462597526
 30
0.0
 10
54.14173487077551
 20
615.4015462597526
 30
0.0
 10
54.14173487077551
 20
615.4015462597526
 30
0.0
 10
71.14960935960607
 20
615.4015462597526
 30
0.0
 10
71.14960935960607
 20
615.4015462597526
 30
0.0
 10
71.30551574081891
 20
615.4015462597526
 30
0.0
 10
71.43307501575145
 20
615.5291001280275
 30
0.0
 10
71.43307501575145
 20
615.6850065092403
 30
0.0
 10
71.43307501575145
 20
615.6850065092403
 30
0.0
 10
71.43307501575145
 20
623.9054835041679
 30
0.0
 10
71.43307501575145
 20
623.9054835041679
 30
0.0
 10
71.43307501575145
 20
624.1889437536556
 30
0.0
 10
71.14960935960607
 20
623.9054835041679
 30
0.0
 10
71.43307501575145
 20
623.9054835041679
 30
0.0
 10
71.43307501575145
 20
623.9054835041679
 30
0.0
 10
87.87401819229126
 20
623.9054835041679
 30
0.0
 10
87.87401819229126
 20
623.9054835041679
 30
0.0
 10
88.15748384843663
 20
623.9054835041679
 30
0.0
 10
87.87401819229126
 20
624.1889437536556
 30
0.0
 10
87.87401819229126
 20
623.9054835041679
 30
0.0
 10
87.87401819229126
 20
623.9054835041679
 30
0.0
 10
87.87401819229126
 20
615.6850065092403
 30
0.0
 10
87.87401819229126
 20
615.6850065092403
 30
0.0
 10
87.87401819229126
 20
615.5291001280275
 30
0.0
 10
88.0015774672238
 20
615.4015462597526
 30
0.0
 10
88.15748384843663
 20
615.4015462597526
 30
0.0
 10
88.15748384843663
 20
615.4015462597526
 30
0.0
 10
105.1653529306095
 20
615.4015462597526
 30
0.0
 10
105.1653529306095
 20
615.4015462597526
 30
0.0
 10
105.3212593118223
 20
615.4015462597526
 30
0.0
 10
105.4488239934126
 20
615.5291001280275
 30
0.0
 10
105.4488239934126
 20
615.6850065092403
 30
0.0
 10
105.4488239934126
 20
615.6850065092403
 30
0.0
 10
105.4488239934126
 20
623.9054835041679
 30
0.0
 10
105.4488239934126
 20
623.9054835041679
 30
0.0
 10
105.4488239934126
 20
624.1889437536556
 30
0.0
 10
105.1653529306095
 20
623.9054835041679
 30
0.0
 10
105.4488239934126
 20
623.9054835041679
 30
0.0
 10
105.4488239934126
 20
623.9054835041679
 30
0.0
 10
121.8897671699524
 20
623.9054835041679
 30
0.0
 10
121.8897671699524
 20
623.9054835041679
 30
0.0
 10
122.1732274194401
 20
623.9054835041679
 30
0.0
 10
121.8897671699524
 20
624.1889437536556
 30
0.0
 10
121.8897671699524
 20
623.9054835041679
 30
0.0
 10
121.8897671699524
 20
623.9054835041679
 30
0.0
 10
121.8897671699524
 20
615.6850065092403
 30
0.0
 10
121.8897671699524
 20
615.6850065092403
 30
0.0
 10
121.8897671699524
 20
615.5291001280275
 30
0.0
 10
122.0173210382272
 20
615.4015462597526
 30
0.0
 10
122.1732274194401
 20
615.4015462597526
 30
0.0
 10
122.1732274194401
 20
615.4015462597526
 30
0.0
 10
139.1811019082706
 20
615.4015462597526
 30
0.0
 10
139.1811019082706
 20
615.4015462597526
 30
0.0
 10
139.3370082894835
 20
615.4015462597526
 30
0.0
 10
139.4645729710737
 20
615.5291001280275
 30
0.0
 10
139.4645729710737
 20
615.6850065092403
 30
0.0
 10
139.4645729710737
 20
615.6850065092403
 30
0.0
 10
139.4645729710737
 20
623.9054835041679
 30
0.0
 10
139.4645729710737
 20
623.9054835041679
 30
0.0
 10
139.4645729710737
 20
624.1889437536556
 30
0.0
 10
139.1811019082706
 20
623.9054835041679
 30
0.0
 10
139.4645729710737
 20
623.9054835041679
 30
0.0
 10
139.4645729710737
 20
623.9054835041679
 30
0.0
 10
155.9055161476135
 20
623.9054835041679
 30
0.0
 10
155.9055161476135
 20
623.9054835041679
 30
0.0
 10
156.1889763971012
 20
623.9054835041679
 30
0.0
 10
155.9055161476135
 20
624.1889437536556
 30
0.0
 10
155.9055161476135
 20
623.9054835041679
 30
0.0
 10
155.9055161476135
 20
623.9054835041679
 30
0.0
 10
155.9055161476135
 20
615.6850065092403
 30
0.0
 10
155.9055161476135
 20
615.6850065092403
 30
0.0
 10
155.9055161476135
 20
615.5291001280275
 30
0.0
 10
156.0330700158884
 20
615.4015462597526
 30
0.0
 10
156.1889763971012
 20
615.4015462597526
 30
0.0
 10
156.1889763971012
 20
615.4015462597526
 30
0.0
 10
173.1968508859317
 20
615.4015462597526
 30
0.0
 10
173.1968508859317
 20
615.4015462597526
 30
0.0
 10
173.3527572671446
 20
615.4015462597526
 30
0.0
 10
173.4803219487348
 20
615.5291001280275
 30
0.0
 10
173.4803219487348
 20
615.6850065092403
 30
0.0
 10
173.4803219487348
 20
615.6850065092403
 30
0.0
 10
173.4803219487348
 20
623.9054835041679
 30
0.0
 10
173.4803219487348
 20
623.9054835041679
 30
0.0
 10
173.4803219487348
 20
624.1889437536556
 30
0.0
 10
173.1968508859317
 20
623.9054835041679
 30
0.0
 10
173.4803219487348
 20
623.9054835041679
 30
0.0
 10
173.4803219487348
 20
623.9054835041679
 30
0.0
 10
189.9212651252746
 20
623.9054835041679
 30
0.0
 10
189.9212651252746
 20
623.9054835041679
 30
0.0
 10
190.2047253747623
 20
623.9054835041679
 30
0.0
 10
189.9212651252746
 20
624.1889437536556
 30
0.0
 10
189.9212651252746
 20
623.9054835041679
 30
0.0
 10
189.9212651252746
 20
623.9054835041679
 30
0.0
 10
189.9212651252746
 20
615.6850065092403
 30
0.0
 10
189.9212651252746
 20
615.6850065092403
 30
0.0
 10
189.9212651252746
 20
615.5291001280275
 30
0.0
 10
190.0488189935495
 20
615.4015462597526
 30
0.0
 10
190.2047253747623
 20
615.4015462597526
 30
0.0
 10
190.2047253747623
 20
615.4015462597526
 30
0.0
 10
207.2125998635929
 20
615.4015462597526
 30
0.0
 10
207.2125998635929
 20
615.4015462597526
 30
0.0
 10
207.3685062448058
 20
615.4015462597526
 30
0.0
 10
207.4960601130806
 20
615.5291001280275
 30
0.0
 10
207.4960601130806
 20
615.6850065092403
 30
0.0
 10
207.4960601130806
 20
615.6850065092403
 30
0.0
 10
207.4960601130806
 20
623.9054835041679
 30
0.0
 10
207.4960601130806
 20
623.9054835041679
 30
0.0
 10
207.4960601130806
 20
624.1889437536556
 30
0.0
 10
207.2125998635929
 20
623.9054835041679
 30
0.0
 10
207.4960601130806
 20
623.9054835041679
 30
0.0
 10
207.4960601130806
 20
623.9054835041679
 30
0.0
 10
223.9370141029358
 20
623.9054835041679
 30
0.0
 10
223.9370141029358
 20
623.9054835041679
 30
0.0
 10
224.2204743524235
 20
623.9054835041679
 30
0.0
 10
223.9370141029358
 20
624.1889437536556
 30
0.0
 10
223.9370141029358
 20
623.9054835041679
 30
0.0
 10
223.9370141029358
 20
623.9054835041679
 30
0.0
 10
223.9370141029358
 20
615.6850065092403
 30
0.0
 10
223.9370141029358
 20
615.6850065092403
 30
0.0
 10
223.9370141029358
 20
615.5291001280275
 30
0.0
 10
224.0645679712106
 20
615.4015462597526
 30
0.0
 10
224.2204743524235
 20
615.4015462597526
 30
0.0
 10
224.2204743524235
 20
615.4015462597526
 30
0.0
 10
241.2283488412541
 20
615.4015462597526
 30
0.0
 10
241.2283488412541
 20
615.4015462597526
 30
0.0
 10
241.3842552224669
 20
615.4015462597526
 30
0.0
 10
241.5118090907417
 20
615.5291001280275
 30
0.0
 10
241.5118090907417
 20
615.6850065092403
 30
0.0
 10
241.5118090907417
 20
615.6850065092403
 30
0.0
 10
241.5118090907417
 20
623.9054835041679
 30
0.0
 10
241.5118090907417
 20
623.9054835041679
 30
0.0
 10
241.5118090907417
 20
624.1889437536556
 30
0.0
 10
241.2283488412541
 20
623.9054835041679
 30
0.0
 10
241.5118090907417
 20
623.9054835041679
 30
0.0
 10
241.5118090907417
 20
623.9054835041679
 30
0.0
 10
257.9527630805969
 20
623.9054835041679
 30
0.0
 10
257.9527630805969
 20
623.9054835041679
 30
0.0
 10
258.2362233300846
 20
623.9054835041679
 30
0.0
 10
257.9527630805969
 20
624.1889437536556
 30
0.0
 10
257.9527630805969
 20
623.9054835041679
 30
0.0
 10
257.9527630805969
 20
623.9054835041679
 30
0.0
 10
257.9527630805969
 20
615.6850065092403
 30
0.0
 10
257.9527630805969
 20
615.6850065092403
 30
0.0
 10
257.9527630805969
 20
615.5291001280275
 30
0.0
 10
258.0803169488718
 20
615.4015462597526
 30
0.0
 10
258.2362233300846
 20
615.4015462597526
 30
0.0
 10
258.2362233300846
 20
615.4015462597526
 30
0.0
 10
275.2440978189152
 20
615.4015462597526
 30
0.0
 10
275.2440978189152
 20
615.4015462597526
 30
0.0
 10
275.400004200128
 20
615.4015462597526
 30
0.0
 10
275.5275580684029
 20
615.5291001280275
 30
0.0
 10
275.5275580684029
 20
615.6850065092403
 30
0.0
 10
275.5275580684029
 20
615.6850065092403
 30
0.0
 10
275.5275580684029
 20
623.9054835041679
 30
0.0
 10
275.5275580684029
 20
623.9054835041679
 30
0.0
 10
275.5275580684029
 20
624.1889437536556
 30
0.0
 10
275.2440978189152
 20
623.9054835041679
 30
0.0
 10
275.5275580684029
 20
623.9054835041679
 30
0.0
 10
275.5275580684029
 20
623.9054835041679
 30
0.0
 10
291.9685120582581
 20
623.9054835041679
 30
0.0
 10
291.9685120582581
 20
623.9054835041679
 30
0.0
 10
292.2519723077457
 20
623.9054835041679
 30
0.0
 10
291.9685120582581
 20
624.1889437536556
 30
0.0
 10
291.9685120582581
 20
623.9054835041679
 30
0.0
 10
291.9685120582581
 20
623.9054835041679
 30
0.0
 10
291.9685120582581
 20
615.6850065092403
 30
0.0
 10
291.9685120582581
 20
615.6850065092403
 30
0.0
 10
291.9685120582581
 20
615.5291001280275
 30
0.0
 10
292.0960659265329
 20
615.4015462597526
 30
0.0
 10
292.2519723077457
 20
615.4015462597526
 30
0.0
 10
292.2519723077457
 20
615.4015462597526
 30
0.0
 10
309.2598467965763
 20
615.4015462597526
 30
0.0
 10
309.2598467965763
 20
615.4015462597526
 30
0.0
 10
309.4157531777891
 20
615.4015462597526
 30
0.0
 10
309.543307046064
 20
615.5291001280275
 30
0.0
 10
309.543307046064
 20
615.6850065092403
 30
0.0
 10
309.543307046064
 20
615.6850065092403
 30
0.0
 10
309.543307046064
 20
623.9054835041679
 30
0.0
 10
309.543307046064
 20
623.9054835041679
 30
0.0
 10
309.543307046064
 20
624.1889437536556
 30
0.0
 10
309.2598467965763
 20
623.9054835041679
 30
0.0
 10
309.543307046064
 20
623.9054835041679
 30
0.0
 10
309.543307046064
 20
623.9054835041679
 30
0.0
 10
326.2677212854069
 20
623.9054835041679
 30
0.0
 10
326.2677212854069
 20
623.9054835041679
 30
0.0
 10
326.4236276666197
 20
623.9054835041679
 30
0.0
 10
326.5511815348946
 20
624.0330373724427
 30
0.0
 10
326.5511815348946
 20
624.1889437536556
 30
0.0
 10
326.5511815348946
 20
624.1889437536556
 30
0.0
 10
326.5511815348946
 20
640.9133579929985
 30
0.0
 10
326.5511815348946
 20
640.9133579929985
 30
0.0
 10
326.5511815348946
 20
641.1968182424861
 30
0.0
 10
326.2677212854069
 20
640.9133579929985
 30
0.0
 10
326.5511815348946
 20
640.9133579929985
 30
0.0
 10
326.5511815348946
 20
640.9133579929985
 30
0.0
 10
334.7716585298222
 20
640.9133579929985
 30
0.0
 10
334.7716585298222
 20
640.9133579929985
 30
0.0
 10
334.927564911035
 20
640.9133579929985
 30
0.0
 10
335.0551187793099
 20
641.0409118612733
 30
0.0
 10
335.0551187793099
 20
641.1968182424861
 30
0.0
 10
335.0551187793099
 20
641.1968182424861
 30
0.0
 10
335.0551187793099
 20
658.2046927313167
 30
0.0
 10
335.0551187793099
 20
658.2046927313167
 30
0.0
 10
335.0551187793099
 20
658.3605991125295
 30
0.0
 10
334.927564911035
 20
658.4881529808044
 30
0.0
 10
334.7716585298222
 20
658.4881529808044
 30
0.0
 10
334.7716585298222
 20
658.4881529808044
 30
0.0
 10
326.5511815348946
 20
658.4881529808044
 30
0.0
 10
326.5511815348946
 20
658.4881529808044
 30
0.0
 10
326.2677212854069
 20
658.4881529808044
 30
0.0
 10
326.5511815348946
 20
658.2046927313167
 30
0.0
 10
326.5511815348946
 20
658.4881529808044
 30
0.0
 10
326.5511815348946
 20
658.4881529808044
 30
0.0
 10
326.5511815348946
 20
674.9291069706596
 30
0.0
 10
326.5511815348946
 20
674.9291069706596
 30
0.0
 10
326.5511815348946
 20
675.2125672201473
 30
0.0
 10
326.2677212854069
 20
674.9291069706596
 30
0.0
 10
326.5511815348946
 20
674.9291069706596
 30
0.0
 10
326.5511815348946
 20
674.9291069706596
 30
0.0
 10
334.7716585298222
 20
674.9291069706596
 30
0.0
 10
334.7716585298222
 20
674.9291069706596
 30
0.0
 10
334.927564911035
 20
674.9291069706596
 30
0.0
 10
335.0551187793099
 20
675.0566608389345
 30
0.0
 10
335.0551187793099
 20
675.2125672201473
 30
0.0
 10
335.0551187793099
 20
675.2125672201473
 30
0.0
 10
335.0551187793099
 20
692.2204417089779
 30
0.0
 10
335.0551187793099
 20
692.2204417089779
 30
0.0
 10
335.0551187793099
 20
692.3763480901907
 30
0.0
 10
334.927564911035
 20
692.5039019584655
 30
0.0
 10
334.7716585298222
 20
692.5039019584655
 30
0.0
 10
334.7716585298222
 20
692.5039019584655
 30
0.0
 10
326.5511815348946
 20
692.5039019584655
 30
0.0
 10
326.5511815348946
 20
692.5039019584655
 30
0.0
 10
326.2677212854069
 20
692.5039019584655
 30
0.0
 10
326.5511815348946
 20
692.2204417089779
 30
0.0
 10
326.5511815348946
 20
692.5039019584655
 30
0.0
 10
326.5511815348946
 20
692.5039019584655
 30
0.0
 10
326.5511815348946
 20
708.9448559483208
 30
0.0
 10
326.5511815348946
 20
708.9448559483208
 30
0.0
 10
326.5511815348946
 20
709.2283161978084
 30
0.0
 10
326.2677212854069
 20
708.9448559483208
 30
0.0
 10
326.5511815348946
 20
708.9448559483208
 30
0.0
 10
326.5511815348946
 20
708.9448559483208
 30
0.0
 10
334.7716585298222
 20
708.9448559483208
 30
0.0
 10
334.7716585298222
 20
708.9448559483208
 30
0.0
 10
334.927564911035
 20
708.9448559483208
 30
0.0
 10
335.0551187793099
 20
709.0724098165956
 30
0.0
 10
335.0551187793099
 20
709.2283161978084
 30
0.0
 10
335.0551187793099
 20
709.2283161978084
 30
0.0
 10
335.0551187793099
 20
726.236190686639
 30
0.0
 10
335.0551187793099
 20
726.236190686639
 30
0.0
 10
335.0551187793099
 20
726.3920970678518
 30
0.0
 10
334.927564911035
 20
726.5196509361267
 30
0.0
 10
334.7716585298222
 20
726.5196509361267
 30
0.0
 10
334.7716585298222
 20
726.5196509361267
 30
0.0
 10
326.5511815348946
 20
726.5196509361267
 30
0.0
 10
326.5511815348946
 20
726.5196509361267
 30
0.0
 10
326.2677212854069
 20
726.5196509361267
 30
0.0
 10
326.5511815348946
 20
726.236190686639
 30
0.0
 10
326.5511815348946
 20
726.5196509361267
 30
0.0
 10
326.5511815348946
 20
726.5196509361267
 30
0.0
 10
326.5511815348946
 20
742.9606049259819
 30
0.0
 10
326.5511815348946
 20
742.9606049259819
 30
0.0
 10
326.5511815348946
 20
743.2440651754696
 30
0.0
 10
326.2677212854069
 20
742.9606049259819
 30
0.0
 10
326.5511815348946
 20
742.9606049259819
 30
0.0
 10
326.5511815348946
 20
742.9606049259819
 30
0.0
 10
334.7716585298222
 20
742.9606049259819
 30
0.0
 10
334.7716585298222
 20
742.9606049259819
 30
0.0
 10
334.927564911035
 20
742.9606049259819
 30
0.0
 10
335.0551187793099
 20
743.0881587942567
 30
0.0
 10
335.0551187793099
 20
743.2440651754696
 30
0.0
 10
335.0551187793099
 20
743.2440651754696
 30
0.0
 10
335.0551187793099
 20
760.2519396643002
 30
0.0
 10
335.0551187793099
 20
760.2519396643002
 30
0.0
 10
335.0551187793099
 20
760.407846045513
 30
0.0
 10
334.927564911035
 20
760.5353999137878
 30
0.0
 10
334.7716585298222
 20
760.5353999137878
 30
0.0
 10
334.7716585298222
 20
760.5353999137878
 30
0.0
 10
326.5511815348946
 20
760.5353999137878
 30
0.0
 10
326.5511815348946
 20
760.5353999137878
 30
0.0
 10
326.2677212854069
 20
760.5353999137878
 30
0.0
 10
326.5511815348946
 20
760.2519396643002
 30
0.0
 10
326.5511815348946
 20
760.5353999137878
 30
0.0
 10
326.5511815348946
 20
760.5353999137878
 30
0.0
 10
326.5511815348946
 20
776.9763430903276
 30
0.0
 10
326.5511815348946
 20
776.9763430903276
 30
0.0
 10
326.5511815348946
 20
777.2598141531307
 30
0.0
 10
326.2677212854069
 20
776.9763430903276
 30
0.0
 10
326.5511815348946
 20
776.9763430903276
 30
0.0
 10
326.5511815348946
 20
776.9763430903276
 30
0.0
 10
334.7716585298222
 20
776.9763430903276
 30
0.0
 10
334.7716585298222
 20
776.9763430903276
 30
0.0
 10
334.927564911035
 20
776.9763430903276
 30
0.0
 10
335.0551187793099
 20
777.1039077719178
 30
0.0
 10
335.0551187793099
 20
777.2598141531307
 30
0.0
 10
335.0551187793099
 20
777.2598141531307
 30
0.0
 10
335.0551187793099
 20
794.2676886419612
 30
0.0
 10
335.0551187793099
 20
794.2676886419612
 30
0.0
 10
335.0551187793099
 20
794.4235950231741
 30
0.0
 10
334.927564911035
 20
794.5511488914489
 30
0.0
 10
334.7716585298222
 20
794.5511488914489
 30
0.0
 10
334.7716585298222
 20
794.5511488914489
 30
0.0
 10
326.5511815348946
 20
794.5511488914489
 30
0.0
 10
326.5511815348946
 20
794.5511488914489
 30
0.0
 10
326.2677212854069
 20
794.5511488914489
 30
0.0
 10
326.5511815348946
 20
794.2676886419612
 30
0.0
 10
326.5511815348946
 20
794.5511488914489
 30
0.0
 10
326.5511815348946
 20
794.5511488914489
 30
0.0
 10
326.5511815348946
 20
810.9920920679888
 30
0.0
 10
326.5511815348946
 20
810.9920920679888
 30
0.0
 10
326.5511815348946
 20
811.2755631307917
 30
0.0
 10
326.2677212854069
 20
810.9920920679888
 30
0.0
 10
326.5511815348946
 20
810.9920920679888
 30
0.0
 10
326.5511815348946
 20
810.9920920679888
 30
0.0
 10
334.7716585298222
 20
810.9920920679888
 30
0.0
 10
334.7716585298222
 20
810.9920920679888
 30
0.0
 10
334.927564911035
 20
810.9920920679888
 30
0.0
 10
335.0551187793099
 20
811.119656749579
 30
0.0
 10
335.0551187793099
 20
811.2755631307917
 30
0.0
 10
335.0551187793099
 20
811.2755631307917
 30
0.0
 10
335.0551187793099
 20
828.2834376196223
 30
0.0
 10
335.0551187793099
 20
828.2834376196223
 30
0.0
 10
335.0551187793099
 20
828.4393440008352
 30
0.0
 10
334.927564911035
 20
828.56689786911
 30
0.0
 10
334.7716585298222
 20
828.56689786911
 30
0.0
 10
334.7716585298222
 20
828.56689786911
 30
0.0
 10
326.5511815348946
 20
828.56689786911
 30
0.0
 10
326.5511815348946
 20
828.56689786911
 30
0.0
 10
326.2677212854069
 20
828.56689786911
 30
0.0
 10
326.5511815348946
 20
828.2834376196223
 30
0.0
 10
326.5511815348946
 20
828.56689786911
 30
0.0
 10
326.5511815348946
 20
828.56689786911
 30
0.0
 10
326.5511815348946
 20
845.0078410456498
 30
0.0
 10
326.5511815348946
 20
845.0078410456498
 30
0.0
 10
326.5511815348946
 20
845.2913121084529
 30
0.0
 10
326.2677212854069
 20
845.0078410456498
 30
0.0
 10
326.5511815348946
 20
845.0078410456498
 30
0.0
 10
326.5511815348946
 20
845.0078410456498
 30
0.0
 10
334.7716585298222
 20
845.0078410456498
 30
0.0
 10
334.7716585298222
 20
845.0078410456498
 30
0.0
 10
334.927564911035
 20
845.0078410456498
 30
0.0
 10
335.0551187793099
 20
845.1354057272402
 30
0.0
 10
335.0551187793099
 20
845.2913121084529
 30
0.0
 10
335.0551187793099
 20
845.2913121084529
 30
0.0
 10
335.0551187793099
 20
862.2991811906258
 30
0.0
 10
335.0551187793099
 20
862.2991811906258
 30
0.0
 10
335.0551187793099
 20
862.4550875718387
 30
0.0
 10
334.927564911035
 20
862.5826468467712
 30
0.0
 10
334.7716585298222
 20
862.5826468467712
 30
0.0
 10
334.7716585298222
 20
862.5826468467712
 30
0.0
 10
326.5511815348946
 20
862.5826468467712
 30
0.0
 10
326.5511815348946
 20
862.5826468467712
 30
0.0
 10
326.2677212854069
 20
862.5826468467712
 30
0.0
 10
326.5511815348946
 20
862.2991811906258
 30
0.0
 10
326.5511815348946
 20
862.5826468467712
 30
0.0
 10
326.5511815348946
 20
862.5826468467712
 30
0.0
 10
326.5511815348946
 20
879.023590023311
 30
0.0
 10
326.5511815348946
 20
879.023590023311
 30
0.0
 10
326.5511815348946
 20
879.3070556794564
 30
0.0
 10
326.2677212854069
 20
879.023590023311
 30
0.0
 10
326.5511815348946
 20
879.023590023311
 30
0.0
 10
326.5511815348946
 20
879.023590023311
 30
0.0
 10
334.7716585298222
 20
879.023590023311
 30
0.0
 10
334.7716585298222
 20
879.023590023311
 30
0.0
 10
334.927564911035
 20
879.023590023311
 30
0.0
 10
335.0551187793099
 20
879.1511492982435
 30
0.0
 10
335.0551187793099
 20
879.3070556794564
 30
0.0
 10
335.0551187793099
 20
879.3070556794564
 30
0.0
 10
335.0551187793099
 20
896.314930168287
 30
0.0
 10
335.0551187793099
 20
896.314930168287
 30
0.0
 10
335.0551187793099
 20
896.4708365494997
 30
0.0
 10
334.927564911035
 20
896.5983958244324
 30
0.0
 10
334.7716585298222
 20
896.5983958244324
 30
0.0
 10
334.7716585298222
 20
896.5983958244324
 30
0.0
 10
326.5511815348946
 20
896.5983958244324
 30
0.0
 10
326.5511815348946
 20
896.5983958244324
 30
0.0
 10
326.2677212854069
 20
896.5983958244324
 30
0.0
 10
326.5511815348946
 20
896.314930168287
 30
0.0
 10
326.5511815348946
 20
896.5983958244324
 30
0.0
 10
326.5511815348946
 20
896.5983958244324
 30
0.0
 10
326.5511815348946
 20
913.3228046571176
 30
0.0
 10
326.5511815348946
 20
913.3228046571176
 30
0.0
 10
326.5511815348946
 20
913.4787110383303
 30
0.0
 10
326.4236276666197
 20
913.606270313263
 30
0.0
 10
326.2677212854069
 20
913.606270313263
 30
0.0
 10
326.2677212854069
 20
913.606270313263
 30
0.0
 10
309.543307046064
 20
913.606270313263
 30
0.0
 10
309.543307046064
 20
913.606270313263
 30
0.0
 10
309.2598467965763
 20
913.606270313263
 30
0.0
 10
309.543307046064
 20
913.3228046571176
 30
0.0
 10
309.543307046064
 20
913.606270313263
 30
0.0
 10
309.543307046064
 20
913.606270313263
 30
0.0
 10
309.543307046064
 20
921.8267419015328
 30
0.0
 10
309.543307046064
 20
921.8267419015328
 30
0.0
 10
309.543307046064
 20
921.9826482827457
 30
0.0
 10
309.4157531777891
 20
922.1102075576782
 30
0.0
 10
309.2598467965763
 20
922.1102075576782
 30
0.0
 10
309.2598467965763
 20
922.1102075576782
 30
0.0
 10
292.2519723077457
 20
922.1102075576782
 30
0.0
 10
292.2519723077457
 20
922.1102075576782
 30
0.0
 10
292.0960659265329
 20
922.1102075576782
 30
0.0
 10
291.9685120582581
 20
921.9826482827457
 30
0.0
 10
291.9685120582581
 20
921.8267419015328
 30
0.0
 10
291.9685120582581
 20
921.8267419015328
 30
0.0
 10
291.9685120582581
 20
913.606270313263
 30
0.0
 10
291.9685120582581
 20
913.606270313263
 30
0.0
 10
291.9685120582581
 20
913.3228046571176
 30
0.0
 10
292.2519723077457
 20
913.606270313263
 30
0.0
 10
291.9685120582581
 20
913.606270313263
 30
0.0
 10
291.9685120582581
 20
913.606270313263
 30
0.0
 10
275.5275580684029
 20
913.606270313263
 30
0.0
 10
275.5275580684029
 20
913.606270313263
 30
0.0
 10
275.2440978189152
 20
913.606270313263
 30
0.0
 10
275.5275580684029
 20
913.3228046571176
 30
0.0
 10
275.5275580684029
 20
913.606270313263
 30
0.0
 10
275.5275580684029
 20
913.606270313263
 30
0.0
 10
275.5275580684029
 20
921.8267419015328
 30
0.0
 10
275.5275580684029
 20
921.8267419015328
 30
0.0
 10
275.5275580684029
 20
921.9826482827457
 30
0.0
 10
275.400004200128
 20
922.1102075576782
 30
0.0
 10
275.2440978189152
 20
922.1102075576782
 30
0.0
 10
275.2440978189152
 20
922.1102075576782
 30
0.0
 10
258.2362233300846
 20
922.1102075576782
 30
0.0
 10
258.2362233300846
 20
922.1102075576782
 30
0.0
 10
258.0803169488718
 20
922.1102075576782
 30
0.0
 10
257.9527630805969
 20
921.9826482827457
 30
0.0
 10
257.9527630805969
 20
921.8267419015328
 30
0.0
 10
257.9527630805969
 20
921.8267419015328
 30
0.0
 10
257.9527630805969
 20
913.606270313263
 30
0.0
 10
257.9527630805969
 20
913.606270313263
 30
0.0
 10
257.9527630805969
 20
913.3228046571176
 30
0.0
 10
258.2362233300846
 20
913.606270313263
 30
0.0
 10
257.9527630805969
 20
913.606270313263
 30
0.0
 10
257.9527630805969
 20
913.606270313263
 30
0.0
 10
241.5118090907417
 20
913.606270313263
 30
0.0
 10
241.5118090907417
 20
913.606270313263
 30
0.0
 10
241.2283488412541
 20
913.606270313263
 30
0.0
 10
241.5118090907417
 20
913.3228046571176
 30
0.0
 10
241.5118090907417
 20
913.606270313263
 30
0.0
 10
241.5118090907417
 20
913.606270313263
 30
0.0
 10
241.5118090907417
 20
921.8267419015328
 30
0.0
 10
241.5118090907417
 20
921.8267419015328
 30
0.0
 10
241.5118090907417
 20
921.9826482827457
 30
0.0
 10
241.3842552224669
 20
922.1102075576782
 30
0.0
 10
241.2283488412541
 20
922.1102075576782
 30
0.0
 10
241.2283488412541
 20
922.1102075576782
 30
0.0
 10
224.2204743524235
 20
922.1102075576782
 30
0.0
 10
224.2204743524235
 20
922.1102075576782
 30
0.0
 10
224.0645679712106
 20
922.1102075576782
 30
0.0
 10
223.9370141029358
 20
921.9826482827457
 30
0.0
 10
223.9370141029358
 20
921.8267419015328
 30
0.0
 10
223.9370141029358
 20
921.8267419015328
 30
0.0
 10
223.9370141029358
 20
913.606270313263
 30
0.0
 10
223.9370141029358
 20
913.606270313263
 30
0.0
 10
223.9370141029358
 20
913.3228046571176
 30
0.0
 10
224.2204743524235
 20
913.606270313263
 30
0.0
 10
223.9370141029358
 20
913.606270313263
 30
0.0
 10
223.9370141029358
 20
913.606270313263
 30
0.0
 10
207.4960601130806
 20
913.606270313263
 30
0.0
 10
207.4960601130806
 20
913.606270313263
 30
0.0
 10
207.2125998635929
 20
913.606270313263
 30
0.0
 10
207.4960601130806
 20
913.3228046571176
 30
0.0
 10
207.4960601130806
 20
913.606270313263
 30
0.0
 10
207.4960601130806
 20
913.606270313263
 30
0.0
 10
207.4960601130806
 20
921.8267419015328
 30
0.0
 10
207.4960601130806
 20
921.8267419015328
 30
0.0
 10
207.4960601130806
 20
921.9826482827457
 30
0.0
 10
207.3685062448058
 20
922.1102075576782
 30
0.0
 10
207.2125998635929
 20
922.1102075576782
 30
0.0
 10
207.2125998635929
 20
922.1102075576782
 30
0.0
 10
190.2047253747623
 20
922.1102075576782
 30
0.0
 10
190.2047253747623
 20
922.1102075576782
 30
0.0
 10
190.0488189935495
 20
922.1102075576782
 30
0.0
 10
189.9212651252746
 20
921.9826482827457
 30
0.0
 10
189.9212651252746
 20
921.8267419015328
 30
0.0
 10
189.9212651252746
 20
921.8267419015328
 30
0.0
 10
189.9212651252746
 20
913.606270313263
 30
0.0
 10
189.9212651252746
 20
913.606270313263
 30
0.0
 10
189.9212651252746
 20
913.3228046571176
 30
0.0
 10
190.2047253747623
 20
913.606270313263
 30
0.0
 10
189.9212651252746
 20
913.606270313263
 30
0.0
 10
189.9212651252746
 20
913.606270313263
 30
0.0
 10
173.4803219487348
 20
913.606270313263
 30
0.0
 10
173.4803219487348
 20
913.606270313263
 30
0.0
 10
173.1968508859317
 20
913.606270313263
 30
0.0
 10
173.4803219487348
 20
913.3228046571176
 30
0.0
 10
173.4803219487348
 20
913.606270313263
 30
0.0
 10
173.4803219487348
 20
913.606270313263
 30
0.0
 10
173.4803219487348
 20
921.8267419015328
 30
0.0
 10
173.4803219487348
 20
921.8267419015328
 30
0.0
 10
173.4803219487348
 20
921.9826482827457
 30
0.0
 10
173.3527572671446
 20
922.1102075576782
 30
0.0
 10
173.1968508859317
 20
922.1102075576782
 30
0.0
 10
173.1968508859317
 20
922.1102075576782
 30
0.0
 10
156.1889763971012
 20
922.1102075576782
 30
0.0
 10
156.1889763971012
 20
922.1102075576782
 30
0.0
 10
156.0330700158884
 20
922.1102075576782
 30
0.0
 10
155.9055161476135
 20
921.9826482827457
 30
0.0
 10
155.9055161476135
 20
921.8267419015328
 30
0.0
 10
155.9055161476135
 20
921.8267419015328
 30
0.0
 10
155.9055161476135
 20
913.606270313263
 30
0.0
 10
155.9055161476135
 20
913.606270313263
 30
0.0
 10
155.9055161476135
 20
913.3228046571176
 30
0.0
 10
156.1889763971012
 20
913.606270313263
 30
0.0
 10
155.9055161476135
 20
913.606270313263
 30
0.0
 10
155.9055161476135
 20
913.606270313263
 30
0.0
 10
139.4645729710737
 20
913.606270313263
 30
0.0
 10
139.4645729710737
 20
913.606270313263
 30
0.0
 10
139.1811019082706
 20
913.606270313263
 30
0.0
 10
139.4645729710737
 20
913.3228046571176
 30
0.0
 10
139.4645729710737
 20
913.606270313263
 30
0.0
 10
139.4645729710737
 20
913.606270313263
 30
0.0
 10
139.4645729710737
 20
921.8267419015328
 30
0.0
 10
139.4645729710737
 20
921.8267419015328
 30
0.0
 10
139.4645729710737
 20
921.9826482827457
 30
0.0
 10
139.3370082894835
 20
922.1102075576782
 30
0.0
 10
139.1811019082706
 20
922.1102075576782
 30
0.0
 10
139.1811019082706
 20
922.1102075576782
 30
0.0
 10
122.1732274194401
 20
922.1102075576782
 30
0.0
 10
122.1732274194401
 20
922.1102075576782
 30
0.0
 10
122.0173210382272
 20
922.1102075576782
 30
0.0
 10
121.8897671699524
 20
921.9826482827457
 30
0.0
 10
121.8897671699524
 20
921.8267419015328
 30
0.0
 10
121.8897671699524
 20
921.8267419015328
 30
0.0
 10
121.8897671699524
 20
913.606270313263
 30
0.0
 10
121.8897671699524
 20
913.606270313263
 30
0.0
 10
121.8897671699524
 20
913.3228046571176
 30
0.0
 10
122.1732274194401
 20
913.606270313263
 30
0.0
 10
121.8897671699524
 20
913.606270313263
 30
0.0
 10
121.8897671699524
 20
913.606270313263
 30
0.0
 10
105.4488239934126
 20
913.606270313263
 30
0.0
 10
105.4488239934126
 20
913.606270313263
 30
0.0
 10
105.1653529306095
 20
913.606270313263
 30
0.0
 10
105.4488239934126
 20
913.3228046571176
 30
0.0
 10
105.4488239934126
 20
913.606270313263
 30
0.0
 10
105.4488239934126
 20
913.606270313263
 30
0.0
 10
105.4488239934126
 20
921.8267419015328
 30
0.0
 10
105.4488239934126
 20
921.8267419015328
 30
0.0
 10
105.4488239934126
 20
921.9826482827457
 30
0.0
 10
105.3212593118223
 20
922.1102075576782
 30
0.0
 10
105.1653529306095
 20
922.1102075576782
 30
0.0
 10
105.1653529306095
 20
922.1102075576782
 30
0.0
 10
88.15748384843663
 20
922.1102075576782
 30
0.0
 10
88.15748384843663
 20
922.1102075576782
 30
0.0
 10
88.0015774672238
 20
922.1102075576782
 30
0.0
 10
87.87401819229126
 20
921.9826482827457
 30
0.0
 10
87.87401819229126
 20
921.8267419015328
 30
0.0
 10
87.87401819229126
 20
921.8267419015328
 30
0.0
 10
87.87401819229126
 20
913.606270313263
 30
0.0
 10
87.87401819229126
 20
913.606270313263
 30
0.0
 10
87.87401819229126
 20
913.3228046571176
 30
0.0
 10
88.15748384843663
 20
913.606270313263
 30
0.0
 10
87.87401819229126
 20
913.606270313263
 30
0.0
 10
87.87401819229126
 20
913.606270313263
 30
0.0
 10
71.43307501575145
 20
913.606270313263
 30
0.0
 10
71.43307501575145
 20
913.606270313263
 30
0.0
 10
71.14960935960607
 20
913.606270313263
 30
0.0
 10
71.43307501575145
 20
913.3228046571176
 30
0.0
 10
71.43307501575145
 20
913.606270313263
 30
0.0
 10
71.43307501575145
 20
913.606270313263
 30
0.0
 10
71.43307501575145
 20
921.8267419015328
 30
0.0
 10
71.43307501575145
 20
921.8267419015328
 30
0.0
 10
71.43307501575145
 20
921.9826482827457
 30
0.0
 10
71.30551574081891
 20
922.1102075576782
 30
0.0
 10
71.14960935960607
 20
922.1102075576782
 30
0.0
 10
71.14960935960607
 20
922.1102075576782
 30
0.0
 10
54.14173487077551
 20
922.1102075576782
 30
0.0
 10
54.14173487077551
 20
922.1102075576782
 30
0.0
 10
53.98582848956266
 20
922.1102075576782
 30
0.0
 10
53.85826921463013
 20
921.9826482827457
 30
0.0
 10
53.85826921463013
 20
921.8267419015328
 30
0.0
 10
53.85826921463013
 20
921.8267419015328
 30
0.0
 10
53.85826921463013
 20
913.606270313263
 30
0.0
 10
53.85826921463013
 20
913.606270313263
 30
0.0
 10
53.85826921463013
 20
913.3228046571176
 30
0.0
 10
54.14173487077551
 20
913.606270313263
 30
0.0
 10
53.85826921463013
 20
913.606270313263
 30
0.0
 10
53.85826921463013
 20
913.606270313263
 30
0.0
 10
37.13386038194494
 20
913.606270313263
 30
0.0
 10
37.13386038194494
 20
913.606270313263
 30
0.0
 10
36.9779540007321
 20
913.606270313263
 30
0.0
 10
36.85039472579956
 20
913.4787110383303
 30
0.0
 10
36.85039472579956
 20
913.3228046571176
 30
0.0
 10
36.85039472579956
 20
913.3228046571176
 30
0.0
 10
36.85039472579956
 20
896.5983958244324
 30
0.0
 10
36.85039472579956
 20
896.5983958244324
 30
0.0
 10
36.85039472579956
 20
896.314930168287
 30
0.0
 10
37.13386038194494
 20
896.5983958244324
 30
0.0
 10
36.85039472579956
 20
896.5983958244324
 30
0.0
 10
36.85039472579956
 20
896.5983958244324
 30
0.0
 10
28.62992313752966
 20
896.5983958244324
 30
0.0
 10
28.62992313752966
 20
896.5983958244324
 30
0.0
 10
28.47401675631682
 20
896.5983958244324
 30
0.0
 10
28.34645748138428
 20
896.4708365494997
 30
0.0
 10
28.34645748138428
 20
896.314930168287
 30
0.0
 10
28.34645748138428
 20
896.314930168287
 30
0.0
 10
28.34645748138428
 20
879.3070556794564
 30
0.0
 10
28.34645748138428
 20
879.3070556794564
 30
0.0
 10
28.34645748138428
 20
879.1511492982435
 30
0.0
 10
28.47401675631682
 20
879.023590023311
 30
0.0
 10
28.62992313752966
 20
879.023590023311
 30
0.0
 10
28.62992313752966
 20
879.023590023311
 30
0.0
 10
36.85039472579956
 20
879.023590023311
 30
0.0
 10
36.85039472579956
 20
879.023590023311
 30
0.0
 10
37.13386038194494
 20
879.023590023311
 30
0.0
 10
36.85039472579956
 20
879.3070556794564
 30
0.0
 10
36.85039472579956
 20
879.023590023311
 30
0.0
 10
36.85039472579956
 20
879.023590023311
 30
0.0
 10
36.85039472579956
 20
862.5826468467712
 30
0.0
 10
36.85039472579956
 20
862.5826468467712
 30
0.0
 10
36.85039472579956
 20
862.2991811906258
 30
0.0
 10
37.13386038194494
 20
862.5826468467712
 30
0.0
 10
36.85039472579956
 20
862.5826468467712
 30
0.0
 10
36.85039472579956
 20
862.5826468467712
 30
0.0
 10
28.62992313752966
 20
862.5826468467712
 30
0.0
 10
28.62992313752966
 20
862.5826468467712
 30
0.0
 10
28.47401675631682
 20
862.5826468467712
 30
0.0
 10
28.34645748138428
 20
862.4550875718387
 30
0.0
 10
28.34645748138428
 20
862.2991811906258
 30
0.0
 10
28.34645748138428
 20
862.2991811906258
 30
0.0
 10
28.34645748138428
 20
845.2913121084529
 30
0.0
 10
28.34645748138428
 20
845.2913121084529
 30
0.0
 10
28.34645748138428
 20
845.1354057272402
 30
0.0
 10
28.47401675631682
 20
845.0078410456498
 30
0.0
 10
28.62992313752966
 20
845.0078410456498
 30
0.0
 10
28.62992313752966
 20
845.0078410456498
 30
0.0
 10
36.85039472579956
 20
845.0078410456498
 30
0.0
 10
36.85039472579956
 20
845.0078410456498
 30
0.0
 10
37.13386038194494
 20
845.0078410456498
 30
0.0
 10
36.85039472579956
 20
845.2913121084529
 30
0.0
 10
36.85039472579956
 20
845.0078410456498
 30
0.0
 10
36.85039472579956
 20
845.0078410456498
 30
0.0
 10
36.85039472579956
 20
828.56689786911
 30
0.0
 10
36.85039472579956
 20
828.56689786911
 30
0.0
 10
36.85039472579956
 20
828.2834376196223
 30
0.0
 10
37.13386038194494
 20
828.56689786911
 30
0.0
 10
36.85039472579956
 20
828.56689786911
 30
0.0
 10
36.85039472579956
 20
828.56689786911
 30
0.0
 10
28.62992313752966
 20
828.56689786911
 30
0.0
 10
28.62992313752966
 20
828.56689786911
 30
0.0
 10
28.47401675631682
 20
828.56689786911
 30
0.0
 10
28.34645748138428
 20
828.4393440008352
 30
0.0
 10
28.34645748138428
 20
828.2834376196223
 30
0.0
 10
28.34645748138428
 20
828.2834376196223
 30
0.0
 10
28.34645748138428
 20
811.2755631307917
 30
0.0
 10
28.34645748138428
 20
811.2755631307917
 30
0.0
 10
28.34645748138428
 20
811.119656749579
 30
0.0
 10
28.47401675631682
 20
810.9920920679888
 30
0.0
 10
28.62992313752966
 20
810.9920920679888
 30
0.0
 10
28.62992313752966
 20
810.9920920679888
 30
0.0
 10
36.85039472579956
 20
810.9920920679888
 30
0.0
 10
36.85039472579956
 20
810.9920920679888
 30
0.0
 10
37.13386038194494
 20
810.9920920679888
 30
0.0
 10
36.85039472579956
 20
811.2755631307917
 30
0.0
 10
36.85039472579956
 20
810.9920920679888
 30
0.0
 10
36.85039472579956
 20
810.9920920679888
 30
0.0
 10
36.85039472579956
 20
794.5511488914489
 30
0.0
 10
36.85039472579956
 20
794.5511488914489
 30
0.0
 10
36.85039472579956
 20
794.2676886419612
 30
0.0
 10
37.13386038194494
 20
794.5511488914489
 30
0.0
 10
36.85039472579956
 20
794.5511488914489
 30
0.0
 10
36.85039472579956
 20
794.5511488914489
 30
0.0
 10
28.62992313752966
 20
794.5511488914489
 30
0.0
 10
28.62992313752966
 20
794.5511488914489
 30
0.0
 10
28.47401675631682
 20
794.5511488914489
 30
0.0
 10
28.34645748138428
 20
794.4235950231741
 30
0.0
 10
28.34645748138428
 20
794.2676886419612
 30
0.0
 10
28.34645748138428
 20
794.2676886419612
 30
0.0
 10
28.34645748138428
 20
777.2598141531307
 30
0.0
 10
28.34645748138428
 20
777.2598141531307
 30
0.0
 10
28.34645748138428
 20
777.1039077719178
 30
0.0
 10
28.47401675631682
 20
776.9763430903276
 30
0.0
 10
28.62992313752966
 20
776.9763430903276
 30
0.0
 10
28.62992313752966
 20
776.9763430903276
 30
0.0
 10
36.85039472579956
 20
776.9763430903276
 30
0.0
 10
36.85039472579956
 20
776.9763430903276
 30
0.0
 10
37.13386038194494
 20
776.9763430903276
 30
0.0
 10
36.85039472579956
 20
777.2598141531307
 30
0.0
 10
36.85039472579956
 20
776.9763430903276
 30
0.0
 10
36.85039472579956
 20
776.9763430903276
 30
0.0
 10
36.85039472579956
 20
760.5353999137878
 30
0.0
 10
36.85039472579956
 20
760.5353999137878
 30
0.0
 10
36.85039472579956
 20
760.2519396643002
 30
0.0
 10
37.13386038194494
 20
760.5353999137878
 30
0.0
 10
36.85039472579956
 20
760.5353999137878
 30
0.0
 10
36.85039472579956
 20
760.5353999137878
 30
0.0
 10
28.62992313752966
 20
760.5353999137878
 30
0.0
 10
28.62992313752966
 20
760.5353999137878
 30
0.0
 10
28.47401675631682
 20
760.5353999137878
 30
0.0
 10
28.34645748138428
 20
760.407846045513
 30
0.0
 10
28.34645748138428
 20
760.2519396643002
 30
0.0
 10
28.34645748138428
 20
760.2519396643002
 30
0.0
 10
28.34645748138428
 20
743.2440651754696
 30
0.0
 10
28.34645748138428
 20
743.2440651754696
 30
0.0
 10
28.34645748138428
 20
743.0881587942567
 30
0.0
 10
28.47401675631682
 20
742.9606049259819
 30
0.0
 10
28.62992313752966
 20
742.9606049259819
 30
0.0
 10
28.62992313752966
 20
742.9606049259819
 30
0.0
 10
36.85039472579956
 20
742.9606049259819
 30
0.0
 10
36.85039472579956
 20
742.9606049259819
 30
0.0
 10
37.13386038194494
 20
742.9606049259819
 30
0.0
 10
36.85039472579956
 20
743.2440651754696
 30
0.0
 10
36.85039472579956
 20
742.9606049259819
 30
0.0
 10
36.85039472579956
 20
742.9606049259819
 30
0.0
 10
36.85039472579956
 20
726.5196509361267
 30
0.0
 10
36.85039472579956
 20
726.5196509361267
 30
0.0
 10
36.85039472579956
 20
726.236190686639
 30
0.0
 10
37.13386038194494
 20
726.5196509361267
 30
0.0
 10
36.85039472579956
 20
726.5196509361267
 30
0.0
 10
36.85039472579956
 20
726.5196509361267
 30
0.0
 10
28.62992313752966
 20
726.5196509361267
 30
0.0
 10
28.62992313752966
 20
726.5196509361267
 30
0.0
 10
28.47401675631682
 20
726.5196509361267
 30
0.0
 10
28.34645748138428
 20
726.3920970678518
 30
0.0
 10
28.34645748138428
 20
726.236190686639
 30
0.0
 10
28.34645748138428
 20
726.236190686639
 30
0.0
 10
28.34645748138428
 20
709.2283161978084
 30
0.0
 10
28.34645748138428
 20
709.2283161978084
 30
0.0
 10
28.34645748138428
 20
709.0724098165956
 30
0.0
 10
28.47401675631682
 20
708.9448559483208
 30
0.0
 10
28.62992313752966
 20
708.9448559483208
 30
0.0
 10
28.62992313752966
 20
708.9448559483208
 30
0.0
 10
36.85039472579956
 20
708.9448559483208
 30
0.0
 10
36.85039472579956
 20
708.9448559483208
 30
0.0
 10
37.13386038194494
 20
708.9448559483208
 30
0.0
 10
36.85039472579956
 20
709.2283161978084
 30
0.0
 10
36.85039472579956
 20
708.9448559483208
 30
0.0
 10
36.85039472579956
 20
708.9448559483208
 30
0.0
 10
36.85039472579956
 20
692.5039019584655
 30
0.0
 10
36.85039472579956
 20
692.5039019584655
 30
0.0
 10
36.85039472579956
 20
692.2204417089779
 30
0.0
 10
37.13386038194494
 20
692.5039019584655
 30
0.0
 10
36.85039472579956
 20
692.5039019584655
 30
0.0
 10
36.85039472579956
 20
692.5039019584655
 30
0.0
 10
28.62992313752966
 20
692.5039019584655
 30
0.0
 10
28.62992313752966
 20
692.5039019584655
 30
0.0
 10
28.47401675631682
 20
692.5039019584655
 30
0.0
 10
28.34645748138428
 20
692.3763480901907
 30
0.0
 10
28.34645748138428
 20
692.2204417089779
 30
0.0
 10
28.34645748138428
 20
692.2204417089779
 30
0.0
 10
28.34645748138428
 20
675.2125672201473
 30
0.0
 10
28.34645748138428
 20
675.2125672201473
 30
0.0
 10
28.34645748138428
 20
675.0566608389345
 30
0.0
 10
28.47401675631682
 20
674.9291069706596
 30
0.0
 10
28.62992313752966
 20
674.9291069706596
 30
0.0
 10
28.62992313752966
 20
674.9291069706596
 30
0.0
 10
36.85039472579956
 20
674.9291069706596
 30
0.0
 10
36.85039472579956
 20
674.9291069706596
 30
0.0
 10
37.13386038194494
 20
674.9291069706596
 30
0.0
 10
36.85039472579956
 20
675.2125672201473
 30
0.0
 10
36.85039472579956
 20
674.9291069706596
 30
0.0
 10
36.85039472579956
 20
674.9291069706596
 30
0.0
 10
36.85039472579956
 20
658.4881529808044
 30
0.0
 10
36.85039472579956
 20
658.4881529808044
 30
0.0
 10
36.85039472579956
 20
658.2046927313167
 30
0.0
 10
37.13386038194494
 20
658.4881529808044
 30
0.0
 10
36.85039472579956
 20
658.4881529808044
 30
0.0
 10
36.85039472579956
 20
658.4881529808044
 30
0.0
 10
28.62992313752966
 20
658.4881529808044
 30
0.0
 10
28.62992313752966
 20
658.4881529808044
 30
0.0
 10
28.47401675631682
 20
658.4881529808044
 30
0.0
 10
28.34645748138428
 20
658.3605991125295
 30
0.0
 10
28.34645748138428
 20
658.2046927313167
 30
0.0
 10
28.34645748138428
 20
658.2046927313167
 30
0.0
 10
28.34645748138428
 20
641.1968182424861
 30
0.0
 10
28.34645748138428
 20
641.1968182424861
 30
0.0
 10
28.34645748138428
 20
641.0409118612733
 30
0.0
 10
28.47401675631682
 20
640.9133579929985
 30
0.0
 10
28.62992313752966
 20
640.9133579929985
 30
0.0
 10
28.62992313752966
 20
640.9133579929985
 30
0.0
 10
36.85039472579956
 20
640.9133579929985
 30
0.0
 10
36.85039472579956
 20
640.9133579929985
 30
0.0
 10
37.13386038194494
 20
640.9133579929985
 30
0.0
 10
36.85039472579956
 20
641.1968182424861
 30
0.0
 10
36.85039472579956
 20
640.9133579929985
 30
0.0
 10
36.85039472579956
 20
640.9133579929985
 30
0.0
 10
36.85039472579956
 20
624.1889437536556
 30
0.0
 10
36.85039472579956
 20
624.1889437536556
 30
0.0
 10
36.85039472579956
 20
624.0330373724427
 30
0.0
 10
36.9779540007321
 20
623.9054835041679
 30
0.0
 10
37.13386038194494
 20
623.9054835041679
 30
0.0
  0
INSERT
  5
8C
330
70
100
AcDbEntity
  8
svg38
100
AcDbBlockReference
  2
Block_2
 10
0.0
 20
0.0
 30
0.0
  0
INSERT
  5
99
330
70
100
AcDbEntity
  8
svg38
100
AcDbBlockReference
  2
Block_3
 10
0.0
 20
0.0
 30
0.0
  0
INSERT
  5
A8
330
70
100
AcDbEntity
  8
svg38
100
AcDbBlockReference
  2
Block_4
 10
0.0
 20
0.0
 30
0.0
  0
ENDSEC
  0
SECTION
  2
OBJECTS
  0
DICTIONARY
  5
C
330
0
100
AcDbDictionary
281
     1
  3
ACAD_COLOR
350
63
  3
ACAD_DETAILVIEWSTYLE
350
6A
  3
ACAD_GROUP
350
D
  3
ACAD_LAYOUT
350
62
  3
ACAD_MATERIAL
350
10
  3
ACAD_MLEADERSTYLE
350
66
  3
ACAD_MLINESTYLE
350
5F
  3
ACAD_PLOTSETTINGS
350
61
  3
ACAD_PLOTSTYLENAME
350
E
  3
ACAD_SCALELIST
350
42
  3
ACAD_SECTIONVIEWSTYLE
350
68
  3
ACAD_TABLESTYLE
350
64
  3
ACAD_VISUALSTYLE
350
29
  3
ACDB_RECOMPOSE_DATA
350
C0
  3
AcDbVariableDictionary
350
B8
  0
DICTIONARY
  5
63
102
{ACAD_REACTORS
330
C
102
}
330
C
100
AcDbDictionary
281
     1
  0
DICTIONARY
  5
6A
102
{ACAD_REACTORS
330
C
102
}
330
C
100
AcDbDictionary
281
     1
  3
Imperial24
350
6B
  0
DICTIONARY
  5
D
102
{ACAD_REACTORS
330
C
102
}
330
C
100
AcDbDictionary
281
     1
  0
DICTIONARY
  5
62
102
{ACAD_REACTORS
330
C
102
}
330
C
100
AcDbDictionary
281
     1
  3
Layout1
350
6F
  3
Layout2
350
77
  3
Model
350
73
  0
DICTIONARY
  5
10
102
{ACAD_REACTORS
330
C
102
}
330
C
100
AcDbDictionary
281
     1
  3
ByBlock
350
19
  3
ByLayer
350
11
  3
Global
350
21
  0
DICTIONARY
  5
66
102
{ACAD_REACTORS
330
C
102
}
330
C
100
AcDbDictionary
281
     1
  3
Standard
350
67
  0
DICTIONARY
  5
5F
102
{ACAD_REACTORS
330
C
102
}
330
C
100
AcDbDictionary
281
     1
  3
Standard
350
60
  0
DICTIONARY
  5
61
102
{ACAD_REACTORS
330
C
102
}
330
C
100
AcDbDictionary
281
     1
  0
ACDBDICTIONARYWDFLT
  5
E
102
{ACAD_REACTORS
330
C
102
}
330
C
100
AcDbDictionary
281
     1
  3
Normal
350
F
100
AcDbDictionaryWithDefault
340
F
  0
DICTIONARY
  5
42
102
{ACAD_REACTORS
330
C
102
}
330
C
100
AcDbDictionary
281
     1
  3
A0
350
43
  3
A1
350
44
  3
A2
350
45
  3
A3
350
46
  3
A4
350
47
  3
A5
350
48
  3
A6
350
49
  3
A7
350
4A
  3
A8
350
4B
  3
A9
350
4C
  3
B0
350
4D
  3
B1
350
4E
  3
B2
350
4F
  3
B3
350
50
  3
B4
350
51
  3
B5
350
52
  3
B6
350
53
  0
DICTIONARY
  5
68
102
{ACAD_REACTORS
330
C
102
}
330
C
100
AcDbDictionary
281
     1
  3
Imperial24
350
69
  0
DICTIONARY
  5
64
102
{ACAD_REACTORS
330
C
102
}
330
C
100
AcDbDictionary
281
     1
  3
Standard
350
65
  0
DICTIONARY
  5
29
102
{ACAD_REACTORS
330
C
102
}
330
C
100
AcDbDictionary
281
     1
  3
2dWireframe
350
2F
  3
Basic
350
2E
  3
Brighten
350
35
  3
ColorChange
350
39
  3
Conceptual
350
32
  3
Dim
350
34
  3
EdgeColorOff
350
41
  3
Facepattern
350
38
  3
Flat
350
2A
  3
FlatWithEdges
350
2B
  3
Gouraud
350
2C
  3
GouraudWithEdges
350
2D
  3
Hidden
350
31
  3
JitterOff
350
3F
  3
Linepattern
350
37
  3
OverhangOff
350
40
  3
Realistic
350
33
  3
Shaded
350
3E
  3
Shaded with edges
350
3D
  3
Shades of Gray
350
3A
  3
Sketchy
350
3B
  3
Thicken
350
36
  3
Wireframe
350
30
  3
X-Ray
350
3C
  0
XRECORD
  5
C0
102
{ACAD_REACTORS
330
C
102
}
330
C
100
AcDbXrecord
280
     1
 90
        1
330
65
  0
DICTIONARY
  5
B8
102
{ACAD_REACTORS
330
C
102
}
330
C
100
AcDbDictionary
281
     1
  3
CANNOSCALE
350
BD
  3
CMLEADERSTYLE
350
BA
  3
CTABLESTYLE
350
B9
  3
CVIEWDETAILSTYLE
350
BB
  3
CVIEWSECTIONSTYLE
350
BC
  0
ACDBDETAILVIEWSTYLE
  5
6B
102
{ACAD_REACTORS
330
6A
102
}
330
6A
100
AcDbModelDocViewStyle
 70
     0
  3
Imperial24
290
     1
300
Imperial24
 90
        0
100
AcDbDetailViewStyle
 70
     0
 71
     0
 90
        3
 71
     1
340
55
 62
   256
 40
0.24
340
0
 62
   256
 40
0.24
300

 40
0.36
280
     3
 71
     2
340
5D
 90
       25
 62
   256
 71
     3
340
55
 62
   256
 40
0.24
 90
        1
 40
0.75
 90
        1
300
%<\AcVar ViewType \f "%tc1">% %<\AcVar ViewDetailId>%\PSCALE %<\AcVar ViewScale \f "%sn">%
 71
     4
340
5D
 90
       25
 62
   256
340
5D
 90
       25
 62
   256
280
     0
  0
LAYOUT
  5
6F
102
{ACAD_REACTORS
330
62
102
}
330
62
100
AcDbPlotSettings
  1

  2

  4

  6

 40
0.0
 41
0.0
 42
0.0
 43
0.0
 44
0.0
 45
0.0
 46
0.0
 47
0.0
 48
0.0
 49
0.0
140
0.0
141
0.0
142
1.0
143
1.0
 70
   688
 72
     0
 73
     0
 74
     5
  7

 75
    16
147
1.0
 76
     0
 77
     2
 78
   300
148
0.0
149
0.0
100
AcDbLayout
  1
Layout1
 70
     1
 71
     1
 10
0.0
 20
0.0
 11
12.0
 21
9.0
 12
0.0
 22
0.0
 32
0.0
 14
0.0
 24
0.0
 34
0.0
 15
0.0
 25
0.0
 35
0.0
146
0.0
 13
0.0
 23
0.0
 33
0.0
 16
1.0
 26
0.0
 36
0.0
 17
0.0
 27
1.0
 37
0.0
 76
     0
330
6C
  0
LAYOUT
  5
77
102
{ACAD_REACTORS
330
62
102
}
330
62
100
AcDbPlotSettings
  1

  2

  4

  6

 40
0.0
 41
0.0
 42
0.0
 43
0.0
 44
0.0
 45
0.0
 46
0.0
 47
0.0
 48
0.0
 49
0.0
140
0.0
141
0.0
142
1.0
143
1.0
 70
   688
 72
     0
 73
     0
 74
     5
  7

 75
    16
147
1.0
 76
     0
 77
     2
 78
   300
148
0.0
149
0.0
100
AcDbLayout
  1
Layout2
 70
     1
 71
     2
 10
0.0
 20
0.0
 11
12.0
 21
9.0
 12
0.0
 22
0.0
 32
0.0
 14
0.0
 24
0.0
 34
0.0
 15
0.0
 25
0.0
 35
0.0
146
0.0
 13
0.0
 23
0.0
 33
0.0
 16
1.0
 26
0.0
 36
0.0
 17
0.0
 27
1.0
 37
0.0
 76
     0
330
74
  0
LAYOUT
  5
73
102
{ACAD_REACTORS
330
62
102
}
330
62
100
AcDbPlotSettings
  1

  2

  4

  6

 40
0.0
 41
0.0
 42
0.0
 43
0.0
 44
0.0
 45
0.0
 46
0.0
 47
0.0
 48
0.0
 49
0.0
140
0.0
141
0.0
142
1.0
143
1.0
 70
  1712
 72
     0
 73
     0
 74
     0
  7

 75
     0
147
1.0
 76
     0
 77
     2
 78
   300
148
0.0
149
0.0
100
AcDbLayout
  1
Model
 70
     1
 71
     0
 10
0.0
 20
0.0
 11
12.0
 21
9.0
 12
0.0
 22
0.0
 32
0.0
 14
0.0
 24
0.0
 34
0.0
 15
0.0
 25
0.0
 35
0.0
146
0.0
 13
0.0
 23
0.0
 33
0.0
 16
1.0
 26
0.0
 36
0.0
 17
0.0
 27
1.0
 37
0.0
 76
     0
330
70
  0
MATERIAL
  5
19
102
{ACAD_XDICTIONARY
360
1A
102
}
102
{ACAD_REACTORS
330
10
102
}
330
10
100
AcDbMaterial
  1
ByBlock
 72
     0
 43
0.0208333333333333
 43
0.0
 43
0.0
 43
0.0
 43
0.0
 43
0.0208333333333333
 43
0.0
 43
0.0
 43
0.0
 43
0.0
 43
1.0
 43
0.0
 43
0.0
 43
0.0
 43
0.0
 43
1.0
 77
     0
 47
0.0208333333333333
 47
0.0
 47
0.0
 47
0.0
 47
0.0
 47
0.0208333333333333
 47
0.0
 47
0.0
 47
0.0
 47
0.0
 47
1.0
 47
0.0
 47
0.0
 47
0.0
 47
0.0
 47
1.0
171
     0
 49
0.0208333333333333
 49
0.0
 49
0.0
 49
0.0
 49
0.0
 49
0.0208333333333333
 49
0.0
 49
0.0
 49
0.0
 49
0.0
 49
1.0
 49
0.0
 49
0.0
 49
0.0
 49
0.0
 49
1.0
175
     0
142
0.0208333333333333
142
0.0
142
0.0
142
0.0
142
0.0
142
0.0208333333333333
142
0.0
142
0.0
142
0.0
142
0.0
142
1.0
142
0.0
142
0.0
142
0.0
142
0.0
142
1.0
179
     0
144
0.0208333333333333
144
0.0
144
0.0
144
0.0
144
0.0
144
0.0208333333333333
144
0.0
144
0.0
144
0.0
144
0.0
144
1.0
144
0.0
144
0.0
144
0.0
144
0.0
144
1.0
147
0.0208333333333333
147
0.0
147
0.0
147
0.0
147
0.0
147
0.0208333333333333
147
0.0
147
0.0
147
0.0
147
0.0
147
1.0
147
0.0
147
0.0
147
0.0
147
0.0
147
1.0
  0
MATERIAL
  5
11
102
{ACAD_XDICTIONARY
360
12
102
}
102
{ACAD_REACTORS
330
10
102
}
330
10
100
AcDbMaterial
  1
ByLayer
 72
     0
 43
0.0208333333333333
 43
0.0
 43
0.0
 43
0.0
 43
0.0
 43
0.0208333333333333
 43
0.0
 43
0.0
 43
0.0
 43
0.0
 43
1.0
 43
0.0
 43
0.0
 43
0.0
 43
0.0
 43
1.0
 77
     0
 47
0.0208333333333333
 47
0.0
 47
0.0
 47
0.0
 47
0.0
 47
0.0208333333333333
 47
0.0
 47
0.0
 47
0.0
 47
0.0
 47
1.0
 47
0.0
 47
0.0
 47
0.0
 47
0.0
 47
1.0
171
     0
 49
0.0208333333333333
 49
0.0
 49
0.0
 49
0.0
 49
0.0
 49
0.0208333333333333
 49
0.0
 49
0.0
 49
0.0
 49
0.0
 49
1.0
 49
0.0
 49
0.0
 49
0.0
 49
0.0
 49
1.0
175
     0
142
0.0208333333333333
142
0.0
142
0.0
142
0.0
142
0.0
142
0.0208333333333333
142
0.0
142
0.0
142
0.0
142
0.0
142
1.0
142
0.0
142
0.0
142
0.0
142
0.0
142
1.0
179
     0
144
0.0208333333333333
144
0.0
144
0.0
144
0.0
144
0.0
144
0.0208333333333333
144
0.0
144
0.0
144
0.0
144
0.0
144
1.0
144
0.0
144
0.0
144
0.0
144
0.0
144
1.0
147
0.0208333333333333
147
0.0
147
0.0
147
0.0
147
0.0
147
0.0208333333333333
147
0.0
147
0.0
147
0.0
147
0.0
147
1.0
147
0.0
147
0.0
147
0.0
147
0.0
147
1.0
  0
MATERIAL
  5
21
102
{ACAD_XDICTIONARY
360
22
102
}
102
{ACAD_REACTORS
330
10
102
}
330
10
100
AcDbMaterial
  1
Global
 72
     0
 43
0.0208333333333333
 43
0.0
 43
0.0
 43
0.0
 43
0.0
 43
0.0208333333333333
 43
0.0
 43
0.0
 43
0.0
 43
0.0
 43
1.0
 43
0.0
 43
0.0
 43
0.0
 43
0.0
 43
1.0
 77
     0
 47
0.0208333333333333
 47
0.0
 47
0.0
 47
0.0
 47
0.0
 47
0.0208333333333333
 47
0.0
 47
0.0
 47
0.0
 47
0.0
 47
1.0
 47
0.0
 47
0.0
 47
0.0
 47
0.0
 47
1.0
171
     0
 49
0.0208333333333333
 49
0.0
 49
0.0
 49
0.0
 49
0.0
 49
0.0208333333333333
 49
0.0
 49
0.0
 49
0.0
 49
0.0
 49
1.0
 49
0.0
 49
0.0
 49
0.0
 49
0.0
 49
1.0
175
     0
142
0.0208333333333333
142
0.0
142
0.0
142
0.0
142
0.0
142
0.0208333333333333
142
0.0
142
0.0
142
0.0
142
0.0
142
1.0
142
0.0
142
0.0
142
0.0
142
0.0
142
1.0
179
     0
144
0.0208333333333333
144
0.0
144
0.0
144
0.0
144
0.0
144
0.0208333333333333
144
0.0
144
0.0
144
0.0
144
0.0
144
1.0
144
0.0
144
0.0
144
0.0
144
0.0
144
1.0
147
0.0208333333333333
147
0.0
147
0.0
147
0.0
147
0.0
147
0.0208333333333333
147
0.0
147
0.0
147
0.0
147
0.0
147
1.0
147
0.0
147
0.0
147
0.0
147
0.0
147
1.0
  0
MLEADERSTYLE
  5
67
102
{ACAD_REACTORS
330
66
102
}
330
66
100
AcDbMLeaderStyle
179
     2
170
     2
171
     1
172
     0
 90
        2
 40
0.0
 41
0.0
173
     1
 91
-1056964608
340
5B
 92
       -2
290
     1
 42
0.09
291
     1
 43
0.36
  3
Standard
 44
0.18
300

342
55
174
     1
178
     6
175
     1
176
     0
 93
-1056964608
 45
0.18
292
     0
297
     0
 46
0.18
 94
-1056964608
 47
1.0
 49
1.0
140
1.0
293
     1
141
0.0
294
     1
177
     0
142
1.0
295
     1
296
     0
143
0.125
271
     0
272
     9
273
     9
298
     1
  0
MLINESTYLE
  5
60
102
{ACAD_REACTORS
330
5F
102
}
330
5F
100
AcDbMlineStyle
  2
STANDARD
 70
     0
  3

 62
   256
 51
90.0
 52
90.0
 71
     2
 49
0.5
 62
   256
  6
BYLAYER
 49
-0.5
 62
   256
  6
BYLAYER
  0
ACDBPLACEHOLDER
  5
F
102
{ACAD_REACTORS
330
E
102
}
330
E
  0
SCALE
  5
43
102
{ACAD_REACTORS
330
42
102
}
330
42
100
AcDbScale
 70
     0
300
1:1
140
1.0
141
1.0
290
     1
  0
SCALE
  5
44
102
{ACAD_REACTORS
330
42
102
}
330
42
100
AcDbScale
 70
     0
300
1/128" = 1'-0"
140
0.0078125
141
12.0
290
     0
  0
SCALE
  5
45
102
{ACAD_REACTORS
330
42
102
}
330
42
100
AcDbScale
 70
     0
300
1/64" = 1'-0"
140
0.015625
141
12.0
290
     0
  0
SCALE
  5
46
102
{ACAD_REACTORS
330
42
102
}
330
42
100
AcDbScale
 70
     0
300
1/32" = 1'-0"
140
0.03125
141
12.0
290
     0
  0
SCALE
  5
47
102
{ACAD_REACTORS
330
42
102
}
330
42
100
AcDbScale
 70
     0
300
1/16" = 1'-0"
140
0.0625
141
12.0
290
     0
  0
SCALE
  5
48
102
{ACAD_REACTORS
330
42
102
}
330
42
100
AcDbScale
 70
     0
300
3/32" = 1'-0"
140
0.09375
141
12.0
290
     0
  0
SCALE
  5
49
102
{ACAD_REACTORS
330
42
102
}
330
42
100
AcDbScale
 70
     0
300
1/8" = 1'-0"
140
0.125
141
12.0
290
     0
  0
SCALE
  5
4A
102
{ACAD_REACTORS
330
42
102
}
330
42
100
AcDbScale
 70
     0
300
3/16" = 1'-0"
140
0.1875
141
12.0
290
     0
  0
SCALE
  5
4B
102
{ACAD_REACTORS
330
42
102
}
330
42
100
AcDbScale
 70
     0
300
1/4" = 1'-0"
140
0.25
141
12.0
290
     0
  0
SCALE
  5
4C
102
{ACAD_REACTORS
330
42
102
}
330
42
100
AcDbScale
 70
     0
300
3/8" = 1'-0"
140
0.375
141
12.0
290
     0
  0
SCALE
  5
4D
102
{ACAD_REACTORS
330
42
102
}
330
42
100
AcDbScale
 70
     0
300
1/2" = 1'-0"
140
0.5
141
12.0
290
     0
  0
SCALE
  5
4E
102
{ACAD_REACTORS
330
42
102
}
330
42
100
AcDbScale
 70
     0
300
3/4" = 1'-0"
140
0.75
141
12.0
290
     0
  0
SCALE
  5
4F
102
{ACAD_REACTORS
330
42
102
}
330
42
100
AcDbScale
 70
     0
300
1" = 1'-0"
140
1.0
141
12.0
290
     0
  0
SCALE
  5
50
102
{ACAD_REACTORS
330
42
102
}
330
42
100
AcDbScale
 70
     0
300
1-1/2" = 1'-0"
140
1.5
141
12.0
290
     0
  0
SCALE
  5
51
102
{ACAD_REACTORS
330
42
102
}
330
42
100
AcDbScale
 70
     0
300
3" = 1'-0"
140
3.0
141
12.0
290
     0
  0
SCALE
  5
52
102
{ACAD_REACTORS
330
42
102
}
330
42
100
AcDbScale
 70
     0
300
6" = 1'-0"
140
6.0
141
12.0
290
     0
  0
SCALE
  5
53
102
{ACAD_REACTORS
330
42
102
}
330
42
100
AcDbScale
 70
     0
300
1'-0" = 1'-0"
140
12.0
141
12.0
290
     0
  0
ACDBSECTIONVIEWSTYLE
  5
69
102
{ACAD_REACTORS
330
68
102
}
330
68
100
AcDbModelDocViewStyle
 70
     0
  3
Imperial24
290
     1
300
Imperial24
 90
        0
100
AcDbSectionViewStyle
 70
     0
 71
     0
 90
       78
 71
     1
340
55
 62
   256
 40
0.24
340
0
340
0
 62
   256
 40
0.24
300
I, O, Q, S, X, Z
 40
0.48
 90
        3
 40
0.18
 90
        1
 71
     2
340
5D
 90
       25
 62
   256
340
5D
 90
       50
 62
   256
 40
0.24
 40
0.0
 40
0.24
 71
     3
340
55
 62
   256
 40
0.24
 90
        1
 40
0.75
 90
        1
300
%<\AcVar ViewType \f "%tc1">% %<\AcVar ViewSectionStartId>%-%<\AcVar ViewSectionEndId>%\PSCALE %<\AcVar ViewScale \f "%sn">%
 71
     4
 62
   256
 62
   257
300
ANSI31
 40
1.0
 90
        0
290
     0
290
     0
 90
        6
 40
0.0
 40
1.570796326794896
 40
0.2617993877991494
 40
1.308996938995747
 40
-0.2617993877991494
 40
1.832595714594046
  0
TABLESTYLE
  5
65
102
{ACAD_XDICTIONARY
360
BE
102
}
102
{ACAD_REACTORS
330
64
102
}
330
64
100
AcDbTableStyle
280
     0
  3
Standard
 70
     0
 71
     0
 40
0.06
 41
0.06
280
     0
281
     0
  7
Standard
140
0.18
170
     2
 62
     0
 63
     7
283
     0
 90
      512
 91
        0
  1

274
    -2
284
     1
 64
     0
275
    -2
285
     1
 65
     0
276
    -2
286
     1
 66
     0
277
    -2
287
     1
 67
     0
278
    -2
288
     1
 68
     0
279
    -2
289
     1
 69
     0
  7
Standard
140
0.25
170
     5
 62
     0
 63
     7
283
     0
 90
      512
 91
        0
  1

274
    -2
284
     1
 64
     0
275
    -2
285
     1
 65
     0
276
    -2
286
     1
 66
     0
277
    -2
287
     1
 67
     0
278
    -2
288
     1
 68
     0
279
    -2
289
     1
 69
     0
  7
Standard
140
0.18
170
     5
 62
     0
 63
     7
283
     0
 90
      512
 91
        0
  1

274
    -2
284
     1
 64
     0
275
    -2
285
     1
 65
     0
276
    -2
286
     1
 66
     0
277
    -2
287
     1
 67
     0
278
    -2
288
     1
 68
     0
279
    -2
289
     1
 69
     0
  0
VISUALSTYLE
  5
2F
102
{ACAD_REACTORS
330
29
102
}
330
29
100
AcDbVisualStyle
  2
2dWireframe
 70
     4
177
     3
291
     0
 70
    58
 90
        0
176
     1
 90
        2
176
     1
 90
        0
176
     1
 90
        0
176
     1
 40
0.6
176
     1
 40
30.0
176
     1
 62
     7
420
 16777215
176
     1
 90
        1
176
     1
 90
        4
176
     1
 62
     7
176
     1
 62
   257
176
     1
 90
        1
176
     1
 90
        1
176
     1
 40
1.0
176
     1
 90
        0
176
     1
 62
   257
176
     1
 40
1.0
176
     1
 90
        1
176
     1
 90
        6
176
     1
 90
        2
176
     1
 62
     7
176
     1
 90
        5
176
     1
 90
        0
176
     1
 90
        0
176
     1
290
     0
176
     1
 90
        1
176
     1
 40
0.0
176
     1
 90
        0
176
     1
290
     1
176
     1
290
     1
176
     1
290
     0
176
     1
290
     0
176
     1
290
     0
176
     1
290
     0
176
     1
290
     0
176
     1
290
     0
176
     1
290
     0
176
     1
 90
       50
176
     1
 40
0.0
176
     1
 40
1.0
176
     1
 90
        0
176
     1
 62
    18
420
        0
176
     1
 90
       50
176
     1
 90
        3
176
     1
 62
     5
420
      255
176
     1
290
     0
176
     1
 90
       50
176
     1
 90
       50
176
     1
 90
       50
176
     1
290
     0
176
     1
 90
       50
176
     1
 62
   256
176
     0
 40
1.0
176
     0
 90
        2
176
     1
  1
strokes_ogs.tif
176
     1
290
     0
176
     1
 40
1.0
176
     1
 40
1.0
176
     1
  0
VISUALSTYLE
  5
2E
102
{ACAD_REACTORS
330
29
102
}
330
29
100
AcDbVisualStyle
  2
Basic
 70
     7
177
     3
291
     1
 70
    58
 90
        1
176
     1
 90
        0
176
     1
 90
        1
176
     1
 90
        0
176
     1
 40
0.6
176
     1
 40
30.0
176
     1
 62
     7
420
 16777215
176
     1
 90
        0
176
     1
 90
        4
176
     1
 62
     7
176
     1
 62
   257
176
     1
 90
        1
176
     1
 90
        1
176
     1
 40
1.0
176
     1
 90
        8
176
     1
 62
     7
176
     1
 40
1.0
176
     1
 90
        1
176
     1
 90
        6
176
     1
 90
        2
176
     1
 62
     7
176
     1
 90
        5
176
     1
 90
        0
176
     1
 90
        0
176
     1
290
     0
176
     1
 90
        1
176
     1
 40
0.0
176
     1
 90
        0
176
     1
290
     0
176
     1
290
     1
176
     1
290
     1
176
     1
290
     0
176
     1
290
     0
176
     1
290
     0
176
     1
290
     0
176
     1
290
     0
176
     1
290
     0
176
     1
 90
       50
176
     1
 40
0.0
176
     1
 40
1.0
176
     1
 90
        0
176
     1
 62
    18
420
        0
176
     1
 90
       50
176
     1
 90
        3
176
     1
 62
     5
420
      255
176
     1
290
     0
176
     1
 90
       50
176
     1
 90
       50
176
     1
 90
       50
176
     1
290
     0
176
     1
 90
       50
176
     1
 62
   256
176
     0
 40
1.0
176
     0
 90
        2
176
     1
  1
strokes_ogs.tif
176
     1
290
     0
176
     1
 40
1.0
176
     1
 40
1.0
176
     1
  0
VISUALSTYLE
  5
35
102
{ACAD_REACTORS
330
29
102
}
330
29
100
AcDbVisualStyle
  2
Brighten
 70
    12
177
     3
291
     1
 70
    58
 90
        2
176
     1
 90
        2
176
     1
 90
        0
176
     1
 90
        0
176
     1
 40
0.6
176
     1
 40
30.0
176
     1
 62
     7
420
 16777215
176
     1
 90
        1
176
     1
 90
        4
176
     1
 62
     7
176
     1
 62
   257
176
     1
 90
        1
176
     1
 90
        1
176
     1
 40
1.0
176
     1
 90
        8
176
     1
 62
     7
176
     1
 40
1.0
176
     1
 90
        1
176
     1
 90
        6
176
     1
 90
        2
176
     1
 62
     7
176
     1
 90
        5
176
     1
 90
        0
176
     1
 90
        0
176
     1
290
     0
176
     1
 90
        1
176
     1
 40
50.0
176
     1
 90
        0
176
     1
290
     0
176
     1
290
     1
176
     1
290
     1
176
     1
290
     0
176
     1
290
     0
176
     1
290
     0
176
     1
290
     0
176
     1
290
     0
176
     1
290
     0
176
     1
 90
       50
176
     1
 40
0.0
176
     1
 40
1.0
176
     1
 90
        0
176
     1
 62
    18
420
        0
176
     1
 90
       50
176
     1
 90
        3
176
     1
 62
     5
420
      255
176
     1
290
     0
176
     1
 90
       50
176
     1
 90
       50
176
     1
 90
       50
176
     1
290
     0
176
     1
 90
       50
176
     1
 62
   256
176
     0
 40
1.0
176
     0
 90
        2
176
     1
  1
strokes_ogs.tif
176
     1
290
     0
176
     1
 40
1.0
176
     1
 40
1.0
176
     1
  0
VISUALSTYLE
  5
39
102
{ACAD_REACTORS
330
29
102
}
330
29
100
AcDbVisualStyle
  2
ColorChange
 70
    16
177
     3
291
     1
 70
    58
 90
        2
176
     1
 90
        2
176
     1
 90
        3
176
     1
 90
        0
176
     1
 40
0.6
176
     1
 40
30.0
176
     1
 62
     8
420
  8421504
176
     1
 90
        1
176
     1
 90
        4
176
     1
 62
     7
176
     1
 62
   257
176
     1
 90
        1
176
     1
 90
        1
176
     1
 40
1.0
176
     1
 90
        8
176
     1
 62
     8
420
  8421504
176
     1
 40
1.0
176
     1
 90
        1
176
     1
 90
        6
176
     1
 90
        2
176
     1
 62
     7
176
     1
 90
        5
176
     1
 90
        0
176
     1
 90
        0
176
     1
290
     0
176
     1
 90
        1
176
     1
 40
0.0
176
     1
 90
        0
176
     1
290
     0
176
     1
290
     1
176
     1
290
     1
176
     1
290
     0
176
     1
290
     0
176
     1
290
     0
176
     1
290
     0
176
     1
290
     0
176
     1
290
     0
176
     1
 90
       50
176
     1
 40
0.0
176
     1
 40
1.0
176
     1
 90
        0
176
     1
 62
    18
420
        0
176
     1
 90
       50
176
     1
 90
        3
176
     1
 62
     5
420
      255
176
     1
290
     0
176
     1
 90
       50
176
     1
 90
       50
176
     1
 90
       50
176
     1
290
     0
176
     1
 90
       50
176
     1
 62
   256
176
     0
 40
1.0
176
     0
 90
        2
176
     1
  1
strokes_ogs.tif
176
     1
290
     0
176
     1
 40
1.0
176
     1
 40
1.0
176
     1
  0
VISUALSTYLE
  5
32
102
{ACAD_REACTORS
330
29
102
}
330
29
100
AcDbVisualStyle
  2
Conceptual
 70
     9
177
     3
291
     0
 70
    58
 90
        3
176
     1
 90
        2
176
     1
 90
        0
176
     1
 90
        0
176
     1
 40
0.6
176
     1
 40
30.0
176
     1
 62
     7
420
 16777215
176
     1
 90
        2
176
     1
 90
        2
176
     1
 62
     7
176
     1
 62
   257
176
     1
 90
        1
176
     1
 90
        1
176
     1
 40
179.0
176
     1
 90
        8
176
     1
 62
     7
176
     1
 40
1.0
176
     1
 90
        1
176
     1
 90
        6
176
     1
 90
        2
176
     1
 62
     7
176
     1
 90
        3
176
     1
 90
        0
176
     1
 90
        0
176
     1
290
     0
176
     1
 90
        1
176
     1
 40
0.0
176
     1
 90
        0
176
     1
290
     0
176
     1
290
     1
176
     1
290
     1
176
     1
290
     0
176
     1
290
     0
176
     1
290
     0
176
     1
290
     0
176
     1
290
     0
176
     1
290
     0
176
     1
 90
       50
176
     1
 40
0.0
176
     1
 40
1.0
176
     1
 90
        0
176
     1
 62
    18
420
        0
176
     1
 90
       50
176
     1
 90
        3
176
     1
 62
     5
420
      255
176
     1
290
     0
176
     1
 90
       50
176
     1
 90
       50
176
     1
 90
       50
176
     1
290
     0
176
     1
 90
       50
176
     1
 62
   256
176
     0
 40
1.0
176
     0
 90
        2
176
     1
  1
strokes_ogs.tif
176
     1
290
     0
176
     1
 40
1.0
176
     1
 40
1.0
176
     1
  0
VISUALSTYLE
  5
34
102
{ACAD_REACTORS
330
29
102
}
330
29
100
AcDbVisualStyle
  2
Dim
 70
    11
177
     3
291
     1
 70
    58
 90
        2
176
     1
 90
        2
176
     1
 90
        0
176
     1
 90
        0
176
     1
 40
0.6
176
     1
 40
30.0
176
     1
 62
     7
420
 16777215
176
     1
 90
        1
176
     1
 90
        4
176
     1
 62
     7
176
     1
 62
   257
176
     1
 90
        1
176
     1
 90
        1
176
     1
 40
1.0
176
     1
 90
        8
176
     1
 62
     7
176
     1
 40
1.0
176
     1
 90
        1
176
     1
 90
        6
176
     1
 90
        2
176
     1
 62
     7
176
     1
 90
        5
176
     1
 90
        0
176
     1
 90
        0
176
     1
290
     0
176
     1
 90
        1
176
     1
 40
-50.0
176
     1
 90
        0
176
     1
290
     0
176
     1
290
     1
176
     1
290
     1
176
     1
290
     0
176
     1
290
     0
176
     1
290
     0
176
     1
290
     0
176
     1
290
     0
176
     1
290
     0
176
     1
 90
       50
176
     1
 40
0.0
176
     1
 40
1.0
176
     1
 90
        0
176
     1
 62
    18
420
        0
176
     1
 90
       50
176
     1
 90
        3
176
     1
 62
     5
420
      255
176
     1
290
     0
176
     1
 90
       50
176
     1
 90
       50
176
     1
 90
       50
176
     1
290
     0
176
     1
 90
       50
176
     1
 62
   256
176
     0
 40
1.0
176
     0
 90
        2
176
     1
  1
strokes_ogs.tif
176
     1
290
     0
176
     1
 40
1.0
176
     1
 40
1.0
176
     1
  0
VISUALSTYLE
  5
41
102
{ACAD_REACTORS
330
29
102
}
330
29
100
AcDbVisualStyle
  2
EdgeColorOff
 70
    22
177
     3
291
     1
 70
    58
 90
        2
176
     0
 90
        2
176
     0
 90
        0
176
     0
 90
        0
176
     0
 40
0.6
176
     0
 40
30.0
176
     0
 62
     7
420
 16777215
176
     0
 90
        1
176
     0
 90
        4
176
     0
 62
     7
176
     0
 62
   257
176
     0
 90
        1
176
     0
 90
        1
176
     0
 40
1.0
176
     0
 90
        8
176
     2
 62
     7
176
     0
 40
1.0
176
     0
 90
        1
176
     0
 90
        6
176
     0
 90
        2
176
     0
 62
     7
176
     0
 90
        5
176
     0
 90
        0
176
     0
 90
        0
176
     0
290
     0
176
     0
 90
        1
176
     0
 40
0.0
176
     0
 90
        0
176
     0
290
     0
176
     0
290
     1
176
     0
290
     1
176
     0
290
     0
176
     0
290
     0
176
     0
290
     0
176
     0
290
     0
176
     0
290
     0
176
     0
290
     0
176
     0
 90
       50
176
     0
 40
0.0
176
     0
 40
1.0
176
     0
 90
        0
176
     0
 62
    18
420
        0
176
     0
 90
       50
176
     0
 90
        3
176
     0
 62
     5
420
      255
176
     0
290
     0
176
     0
 90
       50
176
     0
 90
       50
176
     0
 90
       50
176
     0
290
     0
176
     0
 90
       50
176
     0
 62
   256
176
     0
 40
1.0
176
     0
 90
        2
176
     0
  1
strokes_ogs.tif
176
     0
290
     0
176
     0
 40
1.0
176
     0
 40
1.0
176
     0
  0
VISUALSTYLE
  5
38
102
{ACAD_REACTORS
330
29
102
}
330
29
100
AcDbVisualStyle
  2
Facepattern
 70
    15
177
     3
291
     1
 70
    58
 90
        2
176
     1
 90
        2
176
     1
 90
        0
176
     1
 90
        0
176
     1
 40
0.6
176
     1
 40
30.0
176
     1
 62
     7
420
 16777215
176
     1
 90
        1
176
     1
 90
        4
176
     1
 62
     7
176
     1
 62
   257
176
     1
 90
        1
176
     1
 90
        1
176
     1
 40
1.0
176
     1
 90
        8
176
     1
 62
     7
176
     1
 40
1.0
176
     1
 90
        1
176
     1
 90
        6
176
     1
 90
        2
176
     1
 62
     7
176
     1
 90
        5
176
     1
 90
        0
176
     1
 90
        0
176
     1
290
     0
176
     1
 90
        1
176
     1
 40
0.0
176
     1
 90
        0
176
     1
290
     0
176
     1
290
     1
176
     1
290
     1
176
     1
290
     0
176
     1
290
     0
176
     1
290
     0
176
     1
290
     0
176
     1
290
     0
176
     1
290
     0
176
     1
 90
       50
176
     1
 40
0.0
176
     1
 40
1.0
176
     1
 90
        0
176
     1
 62
    18
420
        0
176
     1
 90
       50
176
     1
 90
        3
176
     1
 62
     5
420
      255
176
     1
290
     0
176
     1
 90
       50
176
     1
 90
       50
176
     1
 90
       50
176
     1
290
     0
176
     1
 90
       50
176
     1
 62
   256
176
     0
 40
1.0
176
     0
 90
        2
176
     1
  1
strokes_ogs.tif
176
     1
290
     0
176
     1
 40
1.0
176
     1
 40
1.0
176
     1
  0
VISUALSTYLE
  5
2A
102
{ACAD_REACTORS
330
29
102
}
330
29
100
AcDbVisualStyle
  2
Flat
 70
     0
177
     3
291
     1
 70
    58
 90
        2
176
     1
 90
        1
176
     1
 90
        1
176
     1
 90
        2
176
     1
 40
0.6
176
     1
 40
30.0
176
     1
 62
     7
420
 16777215
176
     1
 90
        0
176
     1
 90
        0
176
     1
 62
     7
176
     1
 62
   257
176
     1
 90
        1
176
     1
 90
        1
176
     1
 40
1.0
176
     1
 90
        8
176
     1
 62
     7
176
     1
 40
1.0
176
     1
 90
        1
176
     1
 90
        6
176
     1
 90
        2
176
     1
 62
     7
176
     1
 90
        5
176
     1
 90
        0
176
     1
 90
        0
176
     1
290
     0
176
     1
 90
       13
176
     1
 40
0.0
176
     1
 90
        0
176
     1
290
     0
176
     1
290
     1
176
     1
290
     1
176
     1
290
     0
176
     1
290
     0
176
     1
290
     0
176
     1
290
     0
176
     1
290
     0
176
     1
290
     0
176
     1
 90
       50
176
     1
 40
0.0
176
     1
 40
1.0
176
     1
 90
        0
176
     1
 62
    18
420
        0
176
     1
 90
       50
176
     1
 90
        3
176
     1
 62
     5
420
      255
176
     1
290
     0
176
     1
 90
       50
176
     1
 90
       50
176
     1
 90
       50
176
     1
290
     0
176
     1
 90
       50
176
     1
 62
   256
176
     0
 40
1.0
176
     0
 90
        2
176
     1
  1
strokes_ogs.tif
176
     1
290
     0
176
     1
 40
1.0
176
     1
 40
1.0
176
     1
  0
VISUALSTYLE
  5
2B
102
{ACAD_REACTORS
330
29
102
}
330
29
100
AcDbVisualStyle
  2
FlatWithEdges
 70
     1
177
     3
291
     1
 70
    58
 90
        2
176
     1
 90
        1
176
     1
 90
        1
176
     1
 90
        2
176
     1
 40
0.6
176
     1
 40
30.0
176
     1
 62
     7
420
 16777215
176
     1
 90
        1
176
     1
 90
        0
176
     1
 62
     7
176
     1
 62
   257
176
     1
 90
        1
176
     1
 90
        1
176
     1
 40
1.0
176
     1
 90
        0
176
     1
 62
   257
176
     1
 40
1.0
176
     1
 90
        1
176
     1
 90
        6
176
     1
 90
        2
176
     1
 62
     7
176
     1
 90
        5
176
     1
 90
        0
176
     1
 90
        0
176
     1
290
     0
176
     1
 90
       13
176
     1
 40
0.0
176
     1
 90
        0
176
     1
290
     0
176
     1
290
     1
176
     1
290
     1
176
     1
290
     0
176
     1
290
     0
176
     1
290
     0
176
     1
290
     0
176
     1
290
     0
176
     1
290
     0
176
     1
 90
       50
176
     1
 40
0.0
176
     1
 40
1.0
176
     1
 90
        0
176
     1
 62
    18
420
        0
176
     1
 90
       50
176
     1
 90
        3
176
     1
 62
     5
420
      255
176
     1
290
     0
176
     1
 90
       50
176
     1
 90
       50
176
     1
 90
       50
176
     1
290
     0
176
     1
 90
       50
176
     1
 62
   256
176
     0
 40
1.0
176
     0
 90
        2
176
     1
  1
strokes_ogs.tif
176
     1
290
     0
176
     1
 40
1.0
176
     1
 40
1.0
176
     1
  0
VISUALSTYLE
  5
2C
102
{ACAD_REACTORS
330
29
102
}
330
29
100
AcDbVisualStyle
  2
Gouraud
 70
     2
177
     3
291
     1
 70
    58
 90
        2
176
     1
 90
        2
176
     1
 90
        1
176
     1
 90
        2
176
     1
 40
0.6
176
     1
 40
30.0
176
     1
 62
     7
420
 16777215
176
     1
 90
        0
176
     1
 90
        0
176
     1
 62
     7
176
     1
 62
   257
176
     1
 90
        1
176
     1
 90
        1
176
     1
 40
1.0
176
     1
 90
        0
176
     1
 62
     7
176
     1
 40
1.0
176
     1
 90
        1
176
     1
 90
        6
176
     1
 90
        2
176
     1
 62
     7
176
     1
 90
        5
176
     1
 90
        0
176
     1
 90
        0
176
     1
290
     0
176
     1
 90
       13
176
     1
 40
0.0
176
     1
 90
        0
176
     1
290
     0
176
     1
290
     1
176
     1
290
     1
176
     1
290
     0
176
     1
290
     0
176
     1
290
     0
176
     1
290
     0
176
     1
290
     0
176
     1
290
     0
176
     1
 90
       50
176
     1
 40
0.0
176
     1
 40
1.0
176
     1
 90
        0
176
     1
 62
    18
420
        0
176
     1
 90
       50
176
     1
 90
        3
176
     1
 62
     5
420
      255
176
     1
290
     0
176
     1
 90
       50
176
     1
 90
       50
176
     1
 90
       50
176
     1
290
     0
176
     1
 90
       50
176
     1
 62
   256
176
     0
 40
1.0
176
     0
 90
        2
176
     1
  1
strokes_ogs.tif
176
     1
290
     0
176
     1
 40
1.0
176
     1
 40
1.0
176
     1
  0
VISUALSTYLE
  5
2D
102
{ACAD_REACTORS
330
29
102
}
330
29
100
AcDbVisualStyle
  2
GouraudWithEdges
 70
     3
177
     3
291
     1
 70
    58
 90
        2
176
     1
 90
        2
176
     1
 90
        1
176
     1
 90
        2
176
     1
 40
0.6
176
     1
 40
30.0
176
     1
 62
     7
420
 16777215
176
     1
 90
        1
176
     1
 90
        0
176
     1
 62
     7
176
     1
 62
   257
176
     1
 90
        1
176
     1
 90
        1
176
     1
 40
1.0
176
     1
 90
        0
176
     1
 62
   257
176
     1
 40
1.0
176
     1
 90
        1
176
     1
 90
        6
176
     1
 90
        2
176
     1
 62
     7
176
     1
 90
        5
176
     1
 90
        0
176
     1
 90
        0
176
     1
290
     0
176
     1
 90
       13
176
     1
 40
0.0
176
     1
 90
        0
176
     1
290
     0
176
     1
290
     1
176
     1
290
     1
176
     1
290
     0
176
     1
290
     0
176
     1
290
     0
176
     1
290
     0
176
     1
290
     0
176
     1
290
     0
176
     1
 90
       50
176
     1
 40
0.0
176
     1
 40
1.0
176
     1
 90
        0
176
     1
 62
    18
420
        0
176
     1
 90
       50
176
     1
 90
        3
176
     1
 62
     5
420
      255
176
     1
290
     0
176
     1
 90
       50
176
     1
 90
       50
176
     1
 90
       50
176
     1
290
     0
176
     1
 90
       50
176
     1
 62
   256
176
     0
 40
1.0
176
     0
 90
        2
176
     1
  1
strokes_ogs.tif
176
     1
290
     0
176
     1
 40
1.0
176
     1
 40
1.0
176
     1
  0
VISUALSTYLE
  5
31
102
{ACAD_REACTORS
330
29
102
}
330
29
100
AcDbVisualStyle
  2
Hidden
 70
     6
177
     3
291
     0
 70
    58
 90
        1
176
     1
 90
        2
176
     1
 90
        2
176
     1
 90
        0
176
     1
 40
0.6
176
     1
 40
30.0
176
     1
 62
     7
420
 16777215
176
     1
 90
        2
176
     1
 90
        2
176
     1
 62
     7
176
     1
 62
   257
176
     1
 90
        2
176
     1
 90
        1
176
     1
 40
40.0
176
     1
 90
        0
176
     1
 62
   257
176
     1
 40
1.0
176
     1
 90
        1
176
     1
 90
        6
176
     1
 90
        2
176
     1
 62
     7
176
     1
 90
        3
176
     1
 90
        0
176
     1
 90
        0
176
     1
290
     0
176
     1
 90
        1
176
     1
 40
0.0
176
     1
 90
        0
176
     1
290
     0
176
     1
290
     1
176
     1
290
     1
176
     1
290
     0
176
     1
290
     0
176
     1
290
     0
176
     1
290
     0
176
     1
290
     0
176
     1
290
     0
176
     1
 90
       50
176
     1
 40
0.0
176
     1
 40
1.0
176
     1
 90
        0
176
     1
 62
    18
420
        0
176
     1
 90
       50
176
     1
 90
        3
176
     1
 62
     5
420
      255
176
     1
290
     0
176
     1
 90
       50
176
     1
 90
       50
176
     1
 90
       50
176
     1
290
     0
176
     1
 90
       50
176
     1
 62
   256
176
     0
 40
1.0
176
     0
 90
        2
176
     1
  1
strokes_ogs.tif
176
     1
290
     0
176
     1
 40
1.0
176
     1
 40
1.0
176
     1
  0
VISUALSTYLE
  5
3F
102
{ACAD_REACTORS
330
29
102
}
330
29
100
AcDbVisualStyle
  2
JitterOff
 70
    20
177
     3
291
     1
 70
    58
 90
        2
176
     0
 90
        2
176
     0
 90
        0
176
     0
 90
        0
176
     0
 40
0.6
176
     0
 40
30.0
176
     0
 62
     7
420
 16777215
176
     0
 90
        1
176
     0
 90
        4
176
     0
 62
     7
176
     0
 62
   257
176
     0
 90
        1
176
     0
 90
        1
176
     0
 40
1.0
176
     0
 90
       10
176
     2
 62
     7
176
     0
 40
1.0
176
     0
 90
        1
176
     0
 90
        6
176
     0
 90
        2
176
     0
 62
     7
176
     0
 90
        5
176
     0
 90
        0
176
     0
 90
        0
176
     0
290
     0
176
     0
 90
        1
176
     0
 40
0.0
176
     0
 90
        0
176
     0
290
     0
176
     0
290
     1
176
     0
290
     1
176
     0
290
     0
176
     0
290
     0
176
     0
290
     0
176
     0
290
     0
176
     0
290
     0
176
     0
290
     0
176
     0
 90
       50
176
     0
 40
0.0
176
     0
 40
1.0
176
     0
 90
        0
176
     0
 62
    18
420
        0
176
     0
 90
       50
176
     0
 90
        3
176
     0
 62
     5
420
      255
176
     0
290
     0
176
     0
 90
       50
176
     0
 90
       50
176
     0
 90
       50
176
     0
290
     0
176
     0
 90
       50
176
     0
 62
   256
176
     0
 40
1.0
176
     0
 90
        2
176
     0
  1
strokes_ogs.tif
176
     0
290
     0
176
     0
 40
1.0
176
     0
 40
1.0
176
     0
  0
VISUALSTYLE
  5
37
102
{ACAD_REACTORS
330
29
102
}
330
29
100
AcDbVisualStyle
  2
Linepattern
 70
    14
177
     3
291
     1
 70
    58
 90
        2
176
     1
 90
        2
176
     1
 90
        0
176
     1
 90
        0
176
     1
 40
0.6
176
     1
 40
30.0
176
     1
 62
     7
420
 16777215
176
     1
 90
        1
176
     1
 90
        4
176
     1
 62
     7
176
     1
 62
   257
176
     1
 90
        7
176
     1
 90
        7
176
     1
 40
1.0
176
     1
 90
        8
176
     1
 62
     7
176
     1
 40
1.0
176
     1
 90
        1
176
     1
 90
        6
176
     1
 90
        2
176
     1
 62
     7
176
     1
 90
        5
176
     1
 90
        0
176
     1
 90
        0
176
     1
290
     0
176
     1
 90
        1
176
     1
 40
0.0
176
     1
 90
        0
176
     1
290
     0
176
     1
290
     1
176
     1
290
     1
176
     1
290
     0
176
     1
290
     0
176
     1
290
     0
176
     1
290
     0
176
     1
290
     0
176
     1
290
     0
176
     1
 90
       50
176
     1
 40
0.0
176
     1
 40
1.0
176
     1
 90
        0
176
     1
 62
    18
420
        0
176
     1
 90
       50
176
     1
 90
        3
176
     1
 62
     5
420
      255
176
     1
290
     0
176
     1
 90
       50
176
     1
 90
       50
176
     1
 90
       50
176
     1
290
     0
176
     1
 90
       50
176
     1
 62
   256
176
     0
 40
1.0
176
     0
 90
        2
176
     1
  1
strokes_ogs.tif
176
     1
290
     0
176
     1
 40
1.0
176
     1
 40
1.0
176
     1
  0
VISUALSTYLE
  5
40
102
{ACAD_REACTORS
330
29
102
}
330
29
100
AcDbVisualStyle
  2
OverhangOff
 70
    21
177
     3
291
     1
 70
    58
 90
        2
176
     0
 90
        2
176
     0
 90
        0
176
     0
 90
        0
176
     0
 40
0.6
176
     0
 40
30.0
176
     0
 62
     7
420
 16777215
176
     0
 90
        1
176
     0
 90
        4
176
     0
 62
     7
176
     0
 62
   257
176
     0
 90
        1
176
     0
 90
        1
176
     0
 40
1.0
176
     0
 90
        9
176
     2
 62
     7
176
     0
 40
1.0
176
     0
 90
        1
176
     0
 90
        6
176
     0
 90
        2
176
     0
 62
     7
176
     0
 90
        5
176
     0
 90
        0
176
     0
 90
        0
176
     0
290
     0
176
     0
 90
        1
176
     0
 40
0.0
176
     0
 90
        0
176
     0
290
     0
176
     0
290
     1
176
     0
290
     1
176
     0
290
     0
176
     0
290
     0
176
     0
290
     0
176
     0
290
     0
176
     0
290
     0
176
     0
290
     0
176
     0
 90
       50
176
     0
 40
0.0
176
     0
 40
1.0
176
     0
 90
        0
176
     0
 62
    18
420
        0
176
     0
 90
       50
176
     0
 90
        3
176
     0
 62
     5
420
      255
176
     0
290
     0
176
     0
 90
       50
176
     0
 90
       50
176
     0
 90
       50
176
     0
290
     0
176
     0
 90
       50
176
     0
 62
   256
176
     0
 40
1.0
176
     0
 90
        2
176
     0
  1
strokes_ogs.tif
176
     0
290
     0
176
     0
 40
1.0
176
     0
 40
1.0
176
     0
  0
VISUALSTYLE
  5
33
102
{ACAD_REACTORS
330
29
102
}
330
29
100
AcDbVisualStyle
  2
Realistic
 70
     8
177
     3
291
     0
 70
    58
 90
        2
176
     1
 90
        3
176
     1
 90
        0
176
     1
 90
        2
176
     1
 40
0.6
176
     1
 40
30.0
176
     1
 62
     7
420
 16777215
176
     1
 90
        0
176
     1
 90
        0
176
     1
 62
     7
176
     1
 62
   257
176
     1
 90
        1
176
     1
 90
        1
176
     1
 40
1.0
176
     1
 90
        8
176
     1
 62
   257
176
     1
 40
1.0
176
     1
 90
        1
176
     1
 90
        6
176
     1
 90
        2
176
     1
 62
     7
176
     1
 90
        3
176
     1
 90
        0
176
     1
 90
        0
176
     1
290
     0
176
     1
 90
       13
176
     1
 40
0.0
176
     1
 90
        0
176
     1
290
     0
176
     1
290
     1
176
     1
290
     1
176
     1
290
     0
176
     1
290
     0
176
     1
290
     0
176
     1
290
     0
176
     1
290
     0
176
     1
290
     0
176
     1
 90
       50
176
     1
 40
0.0
176
     1
 40
1.0
176
     1
 90
        0
176
     1
 62
    18
420
        0
176
     1
 90
       50
176
     1
 90
        3
176
     1
 62
     5
420
      255
176
     1
290
     0
176
     1
 90
       50
176
     1
 90
       50
176
     1
 90
       50
176
     1
290
     0
176
     1
 90
       50
176
     1
 62
   256
176
     0
 40
1.0
176
     0
 90
        2
176
     1
  1
strokes_ogs.tif
176
     1
290
     0
176
     1
 40
1.0
176
     1
 40
1.0
176
     1
  0
VISUALSTYLE
  5
3E
102
{ACAD_REACTORS
330
29
102
}
330
29
100
AcDbVisualStyle
  2
Shaded
 70
    27
177
     3
291
     0
 70
    58
 90
        2
176
     1
 90
        2
176
     1
 90
        1
176
     1
 90
        2
176
     1
 40
0.6
176
     1
 40
30.0
176
     1
 62
     7
420
 16777215
176
     1
 90
        0
176
     1
 90
        4
176
     1
 62
     7
176
     1
 62
   257
176
     1
 90
        1
176
     1
 90
        1
176
     1
 40
1.0
176
     1
 90
        8
176
     1
 62
   257
176
     1
 40
1.0
176
     1
 90
        1
176
     1
 90
        6
176
     1
 90
        2
176
     1
 62
     8
420
  7895160
176
     1
 90
        3
176
     1
 90
        0
176
     1
 90
        0
176
     1
290
     0
176
     1
 90
        5
176
     1
 40
0.0
176
     1
 90
        0
176
     1
290
     0
176
     1
290
     1
176
     1
290
     1
176
     1
290
     0
176
     1
290
     0
176
     1
290
     0
176
     1
290
     0
176
     1
290
     0
176
     1
290
     0
176
     1
 90
       50
176
     1
 40
0.0
176
     1
 40
1.0
176
     1
 90
        0
176
     1
 62
    18
420
        0
176
     1
 90
       50
176
     1
 90
        3
176
     1
 62
     5
420
      255
176
     1
290
     0
176
     1
 90
       50
176
     1
 90
       50
176
     1
 90
       50
176
     1
290
     0
176
     1
 90
       50
176
     1
 62
   256
176
     0
 40
1.0
176
     0
 90
        2
176
     1
  1
strokes_ogs.tif
176
     1
290
     0
176
     1
 40
1.0
176
     1
 40
1.0
176
     1
  0
VISUALSTYLE
  5
3D
102
{ACAD_REACTORS
330
29
102
}
330
29
100
AcDbVisualStyle
  2
Shaded with edges
 70
    26
177
     3
291
     0
 70
    58
 90
        2
176
     1
 90
        2
176
     1
 90
        1
176
     1
 90
        2
176
     1
 40
0.6
176
     1
 40
30.0
176
     1
 62
     7
420
 16777215
176
     1
 90
        1
176
     1
 90
        2
176
     1
 62
     7
176
     1
 62
   257
176
     1
 90
        2
176
     1
 90
        1
176
     1
 40
1.0
176
     1
 90
        8
176
     1
 62
   257
176
     1
 40
1.0
176
     1
 90
        1
176
     1
 90
        6
176
     1
 90
        2
176
     1
 62
     7
176
     1
 90
        3
176
     1
 90
        0
176
     1
 90
        0
176
     1
290
     0
176
     1
 90
        5
176
     1
 40
0.0
176
     1
 90
        0
176
     1
290
     0
176
     1
290
     1
176
     1
290
     1
176
     1
290
     0
176
     1
290
     0
176
     1
290
     0
176
     1
290
     0
176
     1
290
     0
176
     1
290
     0
176
     1
 90
       50
176
     1
 40
0.0
176
     1
 40
1.0
176
     1
 90
        0
176
     1
 62
    18
420
        0
176
     1
 90
       50
176
     1
 90
        3
176
     1
 62
     5
420
      255
176
     1
290
     0
176
     1
 90
       50
176
     1
 90
       50
176
     1
 90
       50
176
     1
290
     0
176
     1
 90
       50
176
     1
 62
   256
176
     0
 40
1.0
176
     0
 90
        2
176
     1
  1
strokes_ogs.tif
176
     1
290
     0
176
     1
 40
1.0
176
     1
 40
1.0
176
     1
  0
VISUALSTYLE
  5
3A
102
{ACAD_REACTORS
330
29
102
}
330
29
100
AcDbVisualStyle
  2
Shades of Gray
 70
    23
177
     3
291
     0
 70
    58
 90
        2
176
     1
 90
        2
176
     1
 90
        3
176
     1
 90
        0
176
     1
 40
0.6
176
     1
 40
30.0
176
     1
 62
     7
420
 16777215
176
     1
 90
        2
176
     1
 90
        2
176
     1
 62
     7
176
     1
 62
     7
176
     1
 90
        1
176
     1
 90
        1
176
     1
 40
40.0
176
     1
 90
        8
176
     1
 62
     7
176
     1
 40
1.0
176
     1
 90
        1
176
     1
 90
        6
176
     1
 90
        2
176
     1
 62
     7
176
     1
 90
        3
176
     1
 90
        0
176
     1
 90
        0
176
     1
290
     0
176
     1
 90
        1
176
     1
 40
0.0
176
     1
 90
        0
176
     1
290
     0
176
     1
290
     1
176
     1
290
     1
176
     1
290
     0
176
     1
290
     0
176
     1
290
     0
176
     1
290
     0
176
     1
290
     0
176
     1
290
     0
176
     1
 90
       50
176
     1
 40
0.0
176
     1
 40
1.0
176
     1
 90
        0
176
     1
 62
    18
420
        0
176
     1
 90
       50
176
     1
 90
        3
176
     1
 62
     5
420
      255
176
     1
290
     0
176
     1
 90
       50
176
     1
 90
       50
176
     1
 90
       50
176
     1
290
     0
176
     1
 90
       50
176
     1
 62
   256
176
     0
 40
1.0
176
     0
 90
        2
176
     1
  1
strokes_ogs.tif
176
     1
290
     0
176
     1
 40
1.0
176
     1
 40
1.0
176
     1
  0
VISUALSTYLE
  5
3B
102
{ACAD_REACTORS
330
29
102
}
330
29
100
AcDbVisualStyle
  2
Sketchy
 70
    24
177
     3
291
     0
 70
    58
 90
        1
176
     1
 90
        2
176
     1
 90
        2
176
     1
 90
        0
176
     1
 40
0.6
176
     1
 40
30.0
176
     1
 62
     7
420
 16777215
176
     1
 90
        2
176
     1
 90
        2
176
     1
 62
     7
176
     1
 62
     7
176
     1
 90
        1
176
     1
 90
        1
176
     1
 40
40.0
176
     1
 90
       11
176
     1
 62
     7
176
     1
 40
1.0
176
     1
 90
        1
176
     1
 90
        6
176
     1
 90
        2
176
     1
 62
     7
176
     1
 90
        6
176
     1
 90
        0
176
     1
 90
        0
176
     1
290
     0
176
     1
 90
        1
176
     1
 40
0.0
176
     1
 90
        0
176
     1
290
     0
176
     1
290
     1
176
     1
290
     1
176
     1
290
     0
176
     1
290
     0
176
     1
290
     0
176
     1
290
     0
176
     1
290
     0
176
     1
290
     0
176
     1
 90
       50
176
     1
 40
0.0
176
     1
 40
1.0
176
     1
 90
        0
176
     1
 62
    18
420
        0
176
     1
 90
       50
176
     1
 90
        3
176
     1
 62
     5
420
      255
176
     1
290
     0
176
     1
 90
       50
176
     1
 90
       50
176
     1
 90
       50
176
     1
290
     0
176
     1
 90
       50
176
     1
 62
   256
176
     0
 40
1.0
176
     0
 90
        2
176
     1
  1
strokes_ogs.tif
176
     1
290
     0
176
     1
 40
1.0
176
     1
 40
1.0
176
     1
  0
VISUALSTYLE
  5
36
102
{ACAD_REACTORS
330
29
102
}
330
29
100
AcDbVisualStyle
  2
Thicken
 70
    13
177
     3
291
     1
 70
    58
 90
        2
176
     1
 90
        2
176
     1
 90
        0
176
     1
 90
        0
176
     1
 40
0.6
176
     1
 40
30.0
176
     1
 62
     7
420
 16777215
176
     1
 90
        1
176
     1
 90
        4
176
     1
 62
     7
176
     1
 62
   257
176
     1
 90
        1
176
     1
 90
        1
176
     1
 40
1.0
176
     1
 90
       12
176
     1
 62
     7
176
     1
 40
1.0
176
     1
 90
        1
176
     1
 90
        6
176
     1
 90
        2
176
     1
 62
     7
176
     1
 90
        5
176
     1
 90
        0
176
     1
 90
        0
176
     1
290
     0
176
     1
 90
        1
176
     1
 40
0.0
176
     1
 90
        0
176
     1
290
     0
176
     1
290
     1
176
     1
290
     1
176
     1
290
     0
176
     1
290
     0
176
     1
290
     0
176
     1
290
     0
176
     1
290
     0
176
     1
290
     0
176
     1
 90
       50
176
     1
 40
0.0
176
     1
 40
1.0
176
     1
 90
        0
176
     1
 62
    18
420
        0
176
     1
 90
       50
176
     1
 90
        3
176
     1
 62
     5
420
      255
176
     1
290
     0
176
     1
 90
       50
176
     1
 90
       50
176
     1
 90
       50
176
     1
290
     0
176
     1
 90
       50
176
     1
 62
   256
176
     0
 40
1.0
176
     0
 90
        2
176
     1
  1
strokes_ogs.tif
176
     1
290
     0
176
     1
 40
1.0
176
     1
 40
1.0
176
     1
  0
VISUALSTYLE
  5
30
102
{ACAD_REACTORS
330
29
102
}
330
29
100
AcDbVisualStyle
  2
Wireframe
 70
     5
177
     3
291
     0
 70
    58
 90
        0
176
     1
 90
        2
176
     1
 90
        0
176
     1
 90
        0
176
     1
 40
0.6
176
     1
 40
30.0
176
     1
 62
     7
420
 16777215
176
     1
 90
        1
176
     1
 90
        4
176
     1
 62
     7
176
     1
 62
   257
176
     1
 90
        1
176
     1
 90
        1
176
     1
 40
1.0
176
     1
 90
        0
176
     1
 62
   257
176
     1
 40
1.0
176
     1
 90
        1
176
     1
 90
        6
176
     1
 90
        2
176
     1
 62
     7
176
     1
 90
        3
176
     1
 90
        0
176
     1
 90
        0
176
     1
290
     0
176
     1
 90
        1
176
     1
 40
0.0
176
     1
 90
        0
176
     1
290
     0
176
     1
290
     1
176
     1
290
     1
176
     1
290
     0
176
     1
290
     0
176
     1
290
     0
176
     1
290
     0
176
     1
290
     0
176
     1
290
     0
176
     1
 90
       50
176
     1
 40
0.0
176
     1
 40
1.0
176
     1
 90
        0
176
     1
 62
    18
420
        0
176
     1
 90
       50
176
     1
 90
        3
176
     1
 62
     5
420
      255
176
     1
290
     0
176
     1
 90
       50
176
     1
 90
       50
176
     1
 90
       50
176
     1
290
     0
176
     1
 90
       50
176
     1
 62
   256
176
     0
 40
1.0
176
     0
 90
        2
176
     1
  1
strokes_ogs.tif
176
     1
290
     0
176
     1
 40
1.0
176
     1
 40
1.0
176
     1
  0
VISUALSTYLE
  5
3C
102
{ACAD_REACTORS
330
29
102
}
330
29
100
AcDbVisualStyle
  2
X-Ray
 70
    25
177
     3
291
     0
 70
    58
 90
        2
176
     1
 90
        2
176
     1
 90
        1
176
     1
 90
        1
176
     1
 40
0.5
176
     1
 40
30.0
176
     1
 62
     7
420
 16777215
176
     1
 90
        1
176
     1
 90
        0
176
     1
 62
     7
176
     1
 62
   257
176
     1
 90
        1
176
     1
 90
        1
176
     1
 40
1.0
176
     1
 90
        8
176
     1
 62
     7
176
     1
 40
1.0
176
     1
 90
        1
176
     1
 90
        6
176
     1
 90
        2
176
     1
 62
     7
176
     1
 90
        3
176
     1
 90
        0
176
     1
 90
        0
176
     1
290
     0
176
     1
 90
       13
176
     1
 40
0.0
176
     1
 90
        0
176
     1
290
     0
176
     1
290
     1
176
     1
290
     1
176
     1
290
     0
176
     1
290
     0
176
     1
290
     0
176
     1
290
     0
176
     1
290
     0
176
     1
290
     0
176
     1
 90
       50
176
     1
 40
0.0
176
     1
 40
1.0
176
     1
 90
        0
176
     1
 62
    18
420
        0
176
     1
 90
       50
176
     1
 90
        3
176
     1
 62
     5
420
      255
176
     1
290
     0
176
     1
 90
       50
176
     1
 90
       50
176
     1
 90
       50
176
     1
290
     0
176
     1
 90
       50
176
     1
 62
   256
176
     0
 40
1.0
176
     0
 90
        2
176
     1
  1
strokes_ogs.tif
176
     1
290
     0
176
     1
 40
1.0
176
     1
 40
1.0
176
     1
  0
DICTIONARYVAR
  5
BD
102
{ACAD_REACTORS
330
B8
102
}
330
B8
100
DictionaryVariables
280
     0
  1
1:1
  0
DICTIONARYVAR
  5
BA
102
{ACAD_REACTORS
330
B8
102
}
330
B8
100
DictionaryVariables
280
     0
  1
STANDARD
  0
DICTIONARYVAR
  5
B9
102
{ACAD_REACTORS
330
B8
102
}
330
B8
100
DictionaryVariables
280
     0
  1
STANDARD
  0
DICTIONARYVAR
  5
BB
102
{ACAD_REACTORS
330
B8
102
}
330
B8
100
DictionaryVariables
280
     0
  1
Imperial24
  0
DICTIONARYVAR
  5
BC
102
{ACAD_REACTORS
330
B8
102
}
330
B8
100
DictionaryVariables
280
     0
  1
Imperial24
  0
DICTIONARY
  5
1A
330
19
100
AcDbDictionary
280
     1
281
     1
  3
BUMPTILE
360
1C
  3
DIFFUSETILE
360
1B
  3
OPACITYTILE
360
1F
  3
REFLECTIONTILE
360
1E
  3
REFRACTIONTILE
360
20
  3
SPECULARTILE
360
1D
  0
DICTIONARY
  5
12
330
11
100
AcDbDictionary
280
     1
281
     1
  3
BUMPTILE
360
14
  3
DIFFUSETILE
360
13
  3
OPACITYTILE
360
17
  3
REFLECTIONTILE
360
16
  3
REFRACTIONTILE
360
18
  3
SPECULARTILE
360
15
  0
DICTIONARY
  5
22
330
21
100
AcDbDictionary
280
     1
281
     1
  3
BUMPTILE
360
24
  3
DIFFUSETILE
360
23
  3
OPACITYTILE
360
27
  3
REFLECTIONTILE
360
26
  3
REFRACTIONTILE
360
28
  3
SPECULARTILE
360
25
  0
DICTIONARY
  5
BE
330
65
100
AcDbDictionary
280
     1
281
     1
  3
ACAD_ROUNDTRIP_2008_TABLESTYLE_CELLSTYLEMAP
360
BF
  0
XRECORD
  5
1C
102
{ACAD_REACTORS
330
1A
102
}
330
1A
100
AcDbXrecord
280
     1
270
     1
271
     1
  0
XRECORD
  5
1B
102
{ACAD_REACTORS
330
1A
102
}
330
1A
100
AcDbXrecord
280
     1
270
     1
271
     1
  0
XRECORD
  5
1F
102
{ACAD_REACTORS
330
1A
102
}
330
1A
100
AcDbXrecord
280
     1
270
     1
271
     1
  0
XRECORD
  5
1E
102
{ACAD_REACTORS
330
1A
102
}
330
1A
100
AcDbXrecord
280
     1
270
     1
271
     1
  0
XRECORD
  5
20
102
{ACAD_REACTORS
330
1A
102
}
330
1A
100
AcDbXrecord
280
     1
270
     1
271
     1
  0
XRECORD
  5
1D
102
{ACAD_REACTORS
330
1A
102
}
330
1A
100
AcDbXrecord
280
     1
270
     1
271
     1
  0
XRECORD
  5
14
102
{ACAD_REACTORS
330
12
102
}
330
12
100
AcDbXrecord
280
     1
270
     1
271
     1
  0
XRECORD
  5
13
102
{ACAD_REACTORS
330
12
102
}
330
12
100
AcDbXrecord
280
     1
270
     1
271
     1
  0
XRECORD
  5
17
102
{ACAD_REACTORS
330
12
102
}
330
12
100
AcDbXrecord
280
     1
270
     1
271
     1
  0
XRECORD
  5
16
102
{ACAD_REACTORS
330
12
102
}
330
12
100
AcDbXrecord
280
     1
270
     1
271
     1
  0
XRECORD
  5
18
102
{ACAD_REACTORS
330
12
102
}
330
12
100
AcDbXrecord
280
     1
270
     1
271
     1
  0
XRECORD
  5
15
102
{ACAD_REACTORS
330
12
102
}
330
12
100
AcDbXrecord
280
     1
270
     1
271
     1
  0
XRECORD
  5
24
102
{ACAD_REACTORS
330
22
102
}
330
22
100
AcDbXrecord
280
     1
270
     1
271
     1
  0
XRECORD
  5
23
102
{ACAD_REACTORS
330
22
102
}
330
22
100
AcDbXrecord
280
     1
270
     1
271
     1
  0
XRECORD
  5
27
102
{ACAD_REACTORS
330
22
102
}
330
22
100
AcDbXrecord
280
     1
270
     1
271
     1
  0
XRECORD
  5
26
102
{ACAD_REACTORS
330
22
102
}
330
22
100
AcDbXrecord
280
     1
270
     1
271
     1
  0
XRECORD
  5
28
102
{ACAD_REACTORS
330
22
102
}
330
22
100
AcDbXrecord
280
     1
270
     1
271
     1
  0
XRECORD
  5
25
102
{ACAD_REACTORS
330
22
102
}
330
22
100
AcDbXrecord
280
     1
270
     1
271
     1
  0
CELLSTYLEMAP
  5
BF
102
{ACAD_REACTORS
330
BE
102
}
330
BE
100
AcDbCellStyleMap
 90
        3
300
CELLSTYLE
  1
TABLEFORMAT_BEGIN
 90
        5
170
     1
 91
        0
 92
    32768
 62
   257
 93
        1
300
CONTENTFORMAT
  1
CONTENTFORMAT_BEGIN
 90
        0
 91
        0
 92
      512
 93
        0
300

 40
0.0
140
1.0
 94
        5
 62
     0
340
55
144
0.25
309
CONTENTFORMAT_END
171
     0
 94
        0
309
TABLEFORMAT_END
  1
CELLSTYLE_BEGIN
 90
        1
 91
        1
300
_TITLE
309
CELLSTYLE_END
300
CELLSTYLE
  1
TABLEFORMAT_BEGIN
 90
        5
170
     1
 91
        0
 92
        0
 62
   257
 93
        1
300
CONTENTFORMAT
  1
CONTENTFORMAT_BEGIN
 90
        0
 91
        0
 92
      512
 93
        0
300

 40
0.0
140
1.0
 94
        5
 62
     0
340
55
144
0.18
309
CONTENTFORMAT_END
171
     0
 94
        0
309
TABLEFORMAT_END
  1
CELLSTYLE_BEGIN
 90
        2
 91
        1
300
_HEADER
309
CELLSTYLE_END
300
CELLSTYLE
  1
TABLEFORMAT_BEGIN
 90
        5
170
     1
 91
        0
 92
        0
 62
   257
 93
        1
300
CONTENTFORMAT
  1
CONTENTFORMAT_BEGIN
 90
        0
 91
        0
 92
      512
 93
        0
300

 40
0.0
140
1.0
 94
        2
 62
     0
340
55
144
0.18
309
CONTENTFORMAT_END
171
     0
 94
        0
309
TABLEFORMAT_END
  1
CELLSTYLE_BEGIN
 90
        3
 91
        2
300
_DATA
309
CELLSTYLE_END
  0
ENDSEC
  0
EOF
