ISO-10303-21;
HEADER;
/* Generated by software containing ST-Developer
 * from STEP Tools, Inc. (www.steptools.com) 
 */
/* OPTION: using custom schema-name function */

FILE_DESCRIPTION(
/* description */ (''),
/* implementation_level */ '2;1');

FILE_NAME(
/* name */ 'Task3Base_2ppl',
/* time_stamp */ '2025-02-03T11:39:57+08:00',
/* author */ (''),
/* organization */ (''),
/* preprocessor_version */ 'ST-DEVELOPER v19.2',
/* originating_system */ 'Rhino 8.13',
/* authorisation */ '');

FILE_SCHEMA (('CONFIG_CONTROL_DESIGN'));
ENDSEC;

DATA;
#10=SHAPE_REPRESENTATION_RELATIONSHIP('','',#240,#12);
#11=MANIFOLD_SOLID_BREP('brep_1',#13);
#12=ADVANCED_BREP_SHAPE_REPRESENTATION('brep_rep_0',(#11,#262),#239);
#13=CLOSED_SHELL('',(#16,#17,#18,#19,#20,#21,#22,#23,#24,#25));
#14=FACE_BOUND('',#39,.T.);
#15=FACE_BOUND('',#42,.T.);
#16=ADVANCED_FACE('',(#26),#152,.T.);
#17=ADVANCED_FACE('',(#27),#148,.T.);
#18=ADVANCED_FACE('',(#28,#14),#149,.T.);
#19=ADVANCED_FACE('',(#29),#144,.T.);
#20=ADVANCED_FACE('',(#30,#15),#150,.T.);
#21=ADVANCED_FACE('',(#31),#145,.T.);
#22=ADVANCED_FACE('',(#32),#151,.T.);
#23=ADVANCED_FACE('',(#33),#153,.T.);
#24=ADVANCED_FACE('',(#34),#146,.T.);
#25=ADVANCED_FACE('',(#35),#147,.T.);
#26=FACE_OUTER_BOUND('',#36,.T.);
#27=FACE_OUTER_BOUND('',#37,.T.);
#28=FACE_OUTER_BOUND('',#38,.T.);
#29=FACE_OUTER_BOUND('',#40,.T.);
#30=FACE_OUTER_BOUND('',#41,.T.);
#31=FACE_OUTER_BOUND('',#43,.T.);
#32=FACE_OUTER_BOUND('',#44,.T.);
#33=FACE_OUTER_BOUND('',#45,.T.);
#34=FACE_OUTER_BOUND('',#46,.T.);
#35=FACE_OUTER_BOUND('',#47,.T.);
#36=EDGE_LOOP('',(#48,#49,#50,#51));
#37=EDGE_LOOP('',(#52,#53));
#38=EDGE_LOOP('',(#54,#55));
#39=EDGE_LOOP('',(#56,#57));
#40=EDGE_LOOP('',(#58,#59,#60,#61));
#41=EDGE_LOOP('',(#62,#63));
#42=EDGE_LOOP('',(#64,#65));
#43=EDGE_LOOP('',(#66,#67,#68,#69));
#44=EDGE_LOOP('',(#70,#71));
#45=EDGE_LOOP('',(#72,#73,#74,#75));
#46=EDGE_LOOP('',(#76,#77,#78,#79));
#47=EDGE_LOOP('',(#80,#81,#82,#83));
#48=ORIENTED_EDGE('',*,*,#93,.T.);
#49=ORIENTED_EDGE('',*,*,#94,.T.);
#50=ORIENTED_EDGE('',*,*,#84,.F.);
#51=ORIENTED_EDGE('',*,*,#86,.T.);
#52=ORIENTED_EDGE('',*,*,#94,.F.);
#53=ORIENTED_EDGE('',*,*,#85,.F.);
#54=ORIENTED_EDGE('',*,*,#95,.F.);
#55=ORIENTED_EDGE('',*,*,#86,.F.);
#56=ORIENTED_EDGE('',*,*,#91,.T.);
#57=ORIENTED_EDGE('',*,*,#98,.T.);
#58=ORIENTED_EDGE('',*,*,#91,.F.);
#59=ORIENTED_EDGE('',*,*,#92,.T.);
#60=ORIENTED_EDGE('',*,*,#97,.F.);
#61=ORIENTED_EDGE('',*,*,#96,.F.);
#62=ORIENTED_EDGE('',*,*,#87,.T.);
#63=ORIENTED_EDGE('',*,*,#97,.T.);
#64=ORIENTED_EDGE('',*,*,#101,.F.);
#65=ORIENTED_EDGE('',*,*,#90,.F.);
#66=ORIENTED_EDGE('',*,*,#101,.T.);
#67=ORIENTED_EDGE('',*,*,#88,.T.);
#68=ORIENTED_EDGE('',*,*,#100,.F.);
#69=ORIENTED_EDGE('',*,*,#99,.F.);
#70=ORIENTED_EDGE('',*,*,#89,.T.);
#71=ORIENTED_EDGE('',*,*,#100,.T.);
#72=ORIENTED_EDGE('',*,*,#95,.T.);
#73=ORIENTED_EDGE('',*,*,#84,.T.);
#74=ORIENTED_EDGE('',*,*,#85,.T.);
#75=ORIENTED_EDGE('',*,*,#93,.F.);
#76=ORIENTED_EDGE('',*,*,#96,.T.);
#77=ORIENTED_EDGE('',*,*,#87,.F.);
#78=ORIENTED_EDGE('',*,*,#92,.F.);
#79=ORIENTED_EDGE('',*,*,#98,.F.);
#80=ORIENTED_EDGE('',*,*,#99,.T.);
#81=ORIENTED_EDGE('',*,*,#89,.F.);
#82=ORIENTED_EDGE('',*,*,#88,.F.);
#83=ORIENTED_EDGE('',*,*,#90,.T.);
#84=EDGE_CURVE('',#132,#133,#126,.T.);
#85=EDGE_CURVE('',#133,#139,#102,.T.);
#86=EDGE_CURVE('',#132,#138,#103,.T.);
#87=EDGE_CURVE('',#134,#141,#104,.T.);
#88=EDGE_CURVE('',#136,#135,#127,.T.);
#89=EDGE_CURVE('',#135,#143,#105,.T.);
#90=EDGE_CURVE('',#136,#142,#106,.T.);
#91=EDGE_CURVE('',#137,#140,#107,.T.);
#92=EDGE_CURVE('',#137,#134,#128,.T.);
#93=EDGE_CURVE('',#138,#139,#129,.T.);
#94=EDGE_CURVE('',#139,#133,#108,.T.);
#95=EDGE_CURVE('',#138,#132,#109,.T.);
#96=EDGE_CURVE('',#140,#141,#130,.T.);
#97=EDGE_CURVE('',#141,#134,#110,.T.);
#98=EDGE_CURVE('',#140,#137,#111,.T.);
#99=EDGE_CURVE('',#142,#143,#131,.T.);
#100=EDGE_CURVE('',#143,#135,#112,.T.);
#101=EDGE_CURVE('',#142,#136,#113,.T.);
#102=TRIMMED_CURVE($,#114,(#365),(#366),.T.,.CARTESIAN.);
#103=TRIMMED_CURVE($,#115,(#368),(#369),.T.,.CARTESIAN.);
#104=TRIMMED_CURVE($,#116,(#371),(#372),.T.,.CARTESIAN.);
#105=TRIMMED_CURVE($,#117,(#376),(#377),.T.,.CARTESIAN.);
#106=TRIMMED_CURVE($,#118,(#379),(#380),.T.,.CARTESIAN.);
#107=TRIMMED_CURVE($,#119,(#382),(#383),.T.,.CARTESIAN.);
#108=TRIMMED_CURVE($,#120,(#391),(#392),.T.,.CARTESIAN.);
#109=TRIMMED_CURVE($,#121,(#394),(#395),.T.,.CARTESIAN.);
#110=TRIMMED_CURVE($,#122,(#399),(#400),.T.,.CARTESIAN.);
#111=TRIMMED_CURVE($,#123,(#402),(#403),.T.,.CARTESIAN.);
#112=TRIMMED_CURVE($,#124,(#407),(#408),.T.,.CARTESIAN.);
#113=TRIMMED_CURVE($,#125,(#410),(#411),.T.,.CARTESIAN.);
#114=CIRCLE('',#250,5.);
#115=CIRCLE('',#251,7.);
#116=CIRCLE('',#252,2.);
#117=CIRCLE('',#253,1.5);
#118=CIRCLE('',#254,1.5);
#119=CIRCLE('',#255,2.);
#120=CIRCLE('',#256,5.);
#121=CIRCLE('',#257,7.);
#122=CIRCLE('',#258,2.);
#123=CIRCLE('',#259,2.);
#124=CIRCLE('',#260,1.5);
#125=CIRCLE('',#261,1.5);
#126=(
BOUNDED_CURVE()
B_SPLINE_CURVE(3,(#360,#361,#362,#363),.UNSPECIFIED.,.F.,.F.)
B_SPLINE_CURVE_WITH_KNOTS((4,4),(0.,12.328828005938),.UNSPECIFIED.)
CURVE()
GEOMETRIC_REPRESENTATION_ITEM()
RATIONAL_B_SPLINE_CURVE((1.,1.,1.,1.))
REPRESENTATION_ITEM('')
);
#127=(
BOUNDED_CURVE()
B_SPLINE_CURVE(1,(#373,#374),.UNSPECIFIED.,.F.,.F.)
B_SPLINE_CURVE_WITH_KNOTS((2,2),(0.,5.),.UNSPECIFIED.)
CURVE()
GEOMETRIC_REPRESENTATION_ITEM()
RATIONAL_B_SPLINE_CURVE((1.,1.))
REPRESENTATION_ITEM('')
);
#128=(
BOUNDED_CURVE()
B_SPLINE_CURVE(1,(#384,#385),.UNSPECIFIED.,.F.,.F.)
B_SPLINE_CURVE_WITH_KNOTS((2,2),(12.,32.),.UNSPECIFIED.)
CURVE()
GEOMETRIC_REPRESENTATION_ITEM()
RATIONAL_B_SPLINE_CURVE((1.,1.))
REPRESENTATION_ITEM('')
);
#129=(
BOUNDED_CURVE()
B_SPLINE_CURVE(3,(#386,#387,#388,#389),.UNSPECIFIED.,.F.,.F.)
B_SPLINE_CURVE_WITH_KNOTS((4,4),(0.,12.328828005938),.UNSPECIFIED.)
CURVE()
GEOMETRIC_REPRESENTATION_ITEM()
RATIONAL_B_SPLINE_CURVE((1.,1.,1.,1.))
REPRESENTATION_ITEM('')
);
#130=(
BOUNDED_CURVE()
B_SPLINE_CURVE(1,(#396,#397),.UNSPECIFIED.,.F.,.F.)
B_SPLINE_CURVE_WITH_KNOTS((2,2),(12.,32.),.UNSPECIFIED.)
CURVE()
GEOMETRIC_REPRESENTATION_ITEM()
RATIONAL_B_SPLINE_CURVE((1.,1.))
REPRESENTATION_ITEM('')
);
#131=(
BOUNDED_CURVE()
B_SPLINE_CURVE(1,(#404,#405),.UNSPECIFIED.,.F.,.F.)
B_SPLINE_CURVE_WITH_KNOTS((2,2),(0.,5.),.UNSPECIFIED.)
CURVE()
GEOMETRIC_REPRESENTATION_ITEM()
RATIONAL_B_SPLINE_CURVE((1.,1.))
REPRESENTATION_ITEM('')
);
#132=VERTEX_POINT('',#348);
#133=VERTEX_POINT('',#349);
#134=VERTEX_POINT('',#350);
#135=VERTEX_POINT('',#351);
#136=VERTEX_POINT('',#352);
#137=VERTEX_POINT('',#353);
#138=VERTEX_POINT('',#354);
#139=VERTEX_POINT('',#355);
#140=VERTEX_POINT('',#356);
#141=VERTEX_POINT('',#357);
#142=VERTEX_POINT('',#358);
#143=VERTEX_POINT('',#359);
#144=CYLINDRICAL_SURFACE('',#244,2.);
#145=CYLINDRICAL_SURFACE('',#246,1.5);
#146=CYLINDRICAL_SURFACE('',#248,2.);
#147=CYLINDRICAL_SURFACE('',#249,1.5);
#148=PLANE('',#242);
#149=PLANE('',#243);
#150=PLANE('',#245);
#151=PLANE('',#247);
#152=(
BOUNDED_SURFACE()
B_SPLINE_SURFACE(3,2,((#300,#301,#302,#303,#304),(#305,#306,#307,#308,#309),
(#310,#311,#312,#313,#314),(#315,#316,#317,#318,#319)),.UNSPECIFIED.,.F.,
 .F.,.F.)
B_SPLINE_SURFACE_WITH_KNOTS((4,4),(3,2,3),(0.,12.328828005938),(28.,42.,
56.),.UNSPECIFIED.)
GEOMETRIC_REPRESENTATION_ITEM()
RATIONAL_B_SPLINE_SURFACE(((1.,0.707106781186548,1.,0.707106781186548,1.),
(1.,0.707106781186548,1.,0.707106781186548,1.),(1.,0.707106781186548,1.,
0.707106781186548,1.),(1.,0.707106781186548,1.,0.707106781186548,1.)))
REPRESENTATION_ITEM('')
SURFACE()
);
#153=(
BOUNDED_SURFACE()
B_SPLINE_SURFACE(3,2,((#326,#327,#328,#329,#330),(#331,#332,#333,#334,#335),
(#336,#337,#338,#339,#340),(#341,#342,#343,#344,#345)),.UNSPECIFIED.,.F.,
 .F.,.F.)
B_SPLINE_SURFACE_WITH_KNOTS((4,4),(3,2,3),(0.,12.328828005938),(0.,14.,
28.),.UNSPECIFIED.)
GEOMETRIC_REPRESENTATION_ITEM()
RATIONAL_B_SPLINE_SURFACE(((1.,0.707106781186548,1.,0.707106781186548,1.),
(1.,0.707106781186548,1.,0.707106781186548,1.),(1.,0.707106781186548,1.,
0.707106781186548,1.),(1.,0.707106781186548,1.,0.707106781186548,1.)))
REPRESENTATION_ITEM('')
SURFACE()
);
#154=SHAPE_DEFINITION_REPRESENTATION(#155,#240);
#155=PRODUCT_DEFINITION_SHAPE($,$,#157);
#156=PRODUCT_DEFINITION_CONTEXT('3D Mechanical Parts',#229,'design');
#157=PRODUCT_DEFINITION('A','First version',#199,#156);
#158=DATE_TIME_ROLE('classification_date');
#159=DATE_TIME_ROLE('creation_date');
#160=APPLIED_DATE_AND_TIME_ASSIGNMENT(#184,#158,(#163));
#161=APPLIED_DATE_AND_TIME_ASSIGNMENT(#186,#159,(#157));
#162=SECURITY_CLASSIFICATION_LEVEL('unclassified');
#163=SECURITY_CLASSIFICATION('A','Security for version',#162);
#164=APPLIED_SECURITY_CLASSIFICATION_ASSIGNMENT(#163,(#199));
#165=APPROVAL_ROLE('Version approval');
#166=APPROVAL_ROLE('Version Security approval');
#167=APPROVAL_ROLE('Definition approval');
#168=APPROVAL_PERSON_ORGANIZATION(#217,#193,#165);
#169=APPROVAL_PERSON_ORGANIZATION(#218,#194,#166);
#170=APPROVAL_PERSON_ORGANIZATION(#221,#195,#167);
#171=COORDINATED_UNIVERSAL_TIME_OFFSET(5,0,.BEHIND.);
#172=LOCAL_TIME(0,0,0.,#171);
#173=LOCAL_TIME(0,0,0.,#171);
#174=LOCAL_TIME(0,0,0.,#171);
#175=LOCAL_TIME(0,0,0.,#171);
#176=LOCAL_TIME(0,0,0.,#171);
#177=CALENDAR_DATE(1999,1,1);
#178=CALENDAR_DATE(1999,1,1);
#179=CALENDAR_DATE(1999,1,1);
#180=CALENDAR_DATE(1999,1,1);
#181=CALENDAR_DATE(1999,1,1);
#182=DATE_AND_TIME(#177,#172);
#183=DATE_AND_TIME(#178,#173);
#184=DATE_AND_TIME(#179,#174);
#185=DATE_AND_TIME(#180,#175);
#186=DATE_AND_TIME(#181,#176);
#187=APPROVAL_DATE_TIME(#182,#193);
#188=APPROVAL_DATE_TIME(#183,#194);
#189=APPROVAL_DATE_TIME(#185,#195);
#190=APPROVAL_STATUS('not_yet_approved');
#191=APPROVAL_STATUS('not_yet_approved');
#192=APPROVAL_STATUS('approved');
#193=APPROVAL(#190,'Version approval');
#194=APPROVAL(#191,'Version Security approval');
#195=APPROVAL(#192,'Definition approval');
#196=APPLIED_APPROVAL_ASSIGNMENT(#193,(#199));
#197=APPLIED_APPROVAL_ASSIGNMENT(#194,(#163));
#198=APPLIED_APPROVAL_ASSIGNMENT(#195,(#157));
#199=PRODUCT_DEFINITION_FORMATION_WITH_SPECIFIED_SOURCE('A',
'First version',#231,.MADE.);
#200=PERSON_AND_ORGANIZATION_ROLE('design_owner');
#201=PERSON_AND_ORGANIZATION_ROLE('creator');
#202=PERSON_AND_ORGANIZATION_ROLE('design_supplier');
#203=PERSON_AND_ORGANIZATION_ROLE('classification_officer');
#204=PERSON_AND_ORGANIZATION_ROLE('creator');
#205=ORGANIZATION('STI','lab','lab');
#206=ORGANIZATION('STI','unknown','unknown');
#207=ORGANIZATION('STI','unknown','unknown');
#208=ORGANIZATION('STI','unknown','unknown');
#209=ORGANIZATION('STI','unknown','unknown');
#210=ORGANIZATION('STI','unknown','unknown');
#211=ORGANIZATION('STI','unknown','unknown');
#212=PERSON('1','Box','vc60',$,$,$);
#213=PERSON('2','last','first',$,$,$);
#214=PERSON('3','President','Mr.',$,$,$);
#215=PERSON_AND_ORGANIZATION(#212,#205);
#216=PERSON_AND_ORGANIZATION(#213,#206);
#217=PERSON_AND_ORGANIZATION(#214,#207);
#218=PERSON_AND_ORGANIZATION(#214,#208);
#219=PERSON_AND_ORGANIZATION(#214,#209);
#220=PERSON_AND_ORGANIZATION(#213,#210);
#221=PERSON_AND_ORGANIZATION(#214,#211);
#222=APPLIED_PERSON_AND_ORGANIZATION_ASSIGNMENT(#215,#200,(#231));
#223=APPLIED_PERSON_AND_ORGANIZATION_ASSIGNMENT(#216,#201,(#199));
#224=APPLIED_PERSON_AND_ORGANIZATION_ASSIGNMENT(#216,#202,(#199));
#225=APPLIED_PERSON_AND_ORGANIZATION_ASSIGNMENT(#219,#203,(#163));
#226=APPLIED_PERSON_AND_ORGANIZATION_ASSIGNMENT(#220,#204,(#157));
#227=PRODUCT_RELATED_PRODUCT_CATEGORY('detail','detail',(#231));
#228=APPLICATION_PROTOCOL_DEFINITION('International Standard',
'config_control_design',1994,#229);
#229=APPLICATION_CONTEXT(
'configuration controlled 3d designs of mechanical parts and assemblie
s');
#230=PRODUCT_CONTEXT('3D Mechanical Parts',#229,'mechanical');
#231=PRODUCT('Document','Document','',(#230));
#232=(
LENGTH_UNIT()
NAMED_UNIT(*)
SI_UNIT(.MILLI.,.METRE.)
);
#233=(
NAMED_UNIT(*)
PLANE_ANGLE_UNIT()
SI_UNIT($,.RADIAN.)
);
#234=DIMENSIONAL_EXPONENTS(0.,0.,0.,0.,0.,0.,0.);
#235=PLANE_ANGLE_MEASURE_WITH_UNIT(PLANE_ANGLE_MEASURE(0.01745329252),#233);
#236=(
CONVERSION_BASED_UNIT('DEGREES',#235)
NAMED_UNIT(#234)
PLANE_ANGLE_UNIT()
);
#237=(
NAMED_UNIT(*)
SI_UNIT($,.STERADIAN.)
SOLID_ANGLE_UNIT()
);
#238=UNCERTAINTY_MEASURE_WITH_UNIT(LENGTH_MEASURE(0.001),#232,
'DISTANCE_ACCURACY_VALUE',
'Maximum model space distance between geometric entities at asserted c
onnectivities');
#239=(
GEOMETRIC_REPRESENTATION_CONTEXT(3)
GLOBAL_UNCERTAINTY_ASSIGNED_CONTEXT((#238))
GLOBAL_UNIT_ASSIGNED_CONTEXT((#237,#236,#232))
REPRESENTATION_CONTEXT('ID1','3D')
);
#240=SHAPE_REPRESENTATION('Document',(#241,#262),#239);
#241=AXIS2_PLACEMENT_3D($,#299,#263,#264);
#242=AXIS2_PLACEMENT_3D('',#320,#265,$);
#243=AXIS2_PLACEMENT_3D('',#321,#266,$);
#244=AXIS2_PLACEMENT_3D('',#322,#267,$);
#245=AXIS2_PLACEMENT_3D('',#323,#268,$);
#246=AXIS2_PLACEMENT_3D('',#324,#269,$);
#247=AXIS2_PLACEMENT_3D('',#325,#270,$);
#248=AXIS2_PLACEMENT_3D('',#346,#271,$);
#249=AXIS2_PLACEMENT_3D('',#347,#272,$);
#250=AXIS2_PLACEMENT_3D($,#364,#273,#274);
#251=AXIS2_PLACEMENT_3D($,#367,#275,#276);
#252=AXIS2_PLACEMENT_3D($,#370,#277,#278);
#253=AXIS2_PLACEMENT_3D($,#375,#279,#280);
#254=AXIS2_PLACEMENT_3D($,#378,#281,#282);
#255=AXIS2_PLACEMENT_3D($,#381,#283,#284);
#256=AXIS2_PLACEMENT_3D($,#390,#285,#286);
#257=AXIS2_PLACEMENT_3D($,#393,#287,#288);
#258=AXIS2_PLACEMENT_3D($,#398,#289,#290);
#259=AXIS2_PLACEMENT_3D($,#401,#291,#292);
#260=AXIS2_PLACEMENT_3D($,#406,#293,#294);
#261=AXIS2_PLACEMENT_3D($,#409,#295,#296);
#262=AXIS2_PLACEMENT_3D($,#412,#297,#298);
#263=DIRECTION('',(0.,0.,1.));
#264=DIRECTION('',(1.,0.,0.));
#265=DIRECTION('',(0.,0.,-1.));
#266=DIRECTION('',(0.,0.,1.));
#267=DIRECTION('',(0.,0.,1.));
#268=DIRECTION('',(0.,0.,1.));
#269=DIRECTION('',(0.,0.,1.));
#270=DIRECTION('',(0.,0.,1.));
#271=DIRECTION('',(0.,0.,1.));
#272=DIRECTION('',(0.,0.,1.));
#273=DIRECTION('',(0.,0.,1.));
#274=DIRECTION('',(1.,0.,0.));
#275=DIRECTION('',(1.5538640839393E-32,2.53765262771464E-16,-1.));
#276=DIRECTION('',(1.,8.97195690676443E-17,0.));
#277=DIRECTION('',(0.,0.,1.));
#278=DIRECTION('',(1.,-7.85046229341888E-17,0.));
#279=DIRECTION('',(0.,0.,1.));
#280=DIRECTION('',(1.,0.,0.));
#281=DIRECTION('',(0.,0.,1.));
#282=DIRECTION('',(1.,0.,0.));
#283=DIRECTION('',(0.,0.,-1.));
#284=DIRECTION('',(1.,1.23259516440783E-32,0.));
#285=DIRECTION('',(0.,0.,1.));
#286=DIRECTION('',(-1.,1.22464679914735E-16,0.));
#287=DIRECTION('',(0.,0.,-1.));
#288=DIRECTION('',(-1.,1.22464679914735E-16,0.));
#289=DIRECTION('',(0.,0.,1.));
#290=DIRECTION('',(-1.,1.22464679914735E-16,0.));
#291=DIRECTION('',(0.,0.,-1.));
#292=DIRECTION('',(-1.,4.39600569805466E-17,0.));
#293=DIRECTION('',(0.,0.,1.));
#294=DIRECTION('',(-1.,1.22464679914735E-16,0.));
#295=DIRECTION('',(0.,0.,1.));
#296=DIRECTION('',(-1.,1.22464679914735E-16,0.));
#297=DIRECTION('',(0.,0.,1.));
#298=DIRECTION('',(1.,0.,0.));
#299=CARTESIAN_POINT('',(0.,0.,0.));
#300=CARTESIAN_POINT('',(-7.,8.57252759403147E-16,12.));
#301=CARTESIAN_POINT('',(-7.,-7.,12.));
#302=CARTESIAN_POINT('',(-1.28587913910472E-15,-7.,12.));
#303=CARTESIAN_POINT('',(7.,-7.,12.));
#304=CARTESIAN_POINT('',(7.,0.,12.));
#305=CARTESIAN_POINT('',(-6.33333333333333,7.7560963945999E-16,8.));
#306=CARTESIAN_POINT('',(-6.33333333333333,-6.33333333333333,8.));
#307=CARTESIAN_POINT('',(-1.16341445918999E-15,-6.33333333333333,8.));
#308=CARTESIAN_POINT('',(6.33333333333333,-6.33333333333333,8.));
#309=CARTESIAN_POINT('',(6.33333333333333,0.,8.));
#310=CARTESIAN_POINT('',(-5.66666666666667,6.93966519516833E-16,4.));
#311=CARTESIAN_POINT('',(-5.66666666666667,-5.66666666666667,4.));
#312=CARTESIAN_POINT('',(-1.04094977927525E-15,-5.66666666666667,4.));
#313=CARTESIAN_POINT('',(5.66666666666666,-5.66666666666667,4.));
#314=CARTESIAN_POINT('',(5.66666666666667,0.,4.));
#315=CARTESIAN_POINT('',(-5.,6.12323399573677E-16,0.));
#316=CARTESIAN_POINT('',(-5.,-5.,0.));
#317=CARTESIAN_POINT('',(-9.18485099360515E-16,-5.,0.));
#318=CARTESIAN_POINT('',(5.,-5.,0.));
#319=CARTESIAN_POINT('',(5.,0.,0.));
#320=CARTESIAN_POINT('',(-5.1,-5.1,0.));
#321=CARTESIAN_POINT('',(-7.14,7.14,12.));
#322=CARTESIAN_POINT('',(1.57009245868377E-16,-2.46519032881566E-32,16.));
#323=CARTESIAN_POINT('',(-2.04,-2.04,32.));
#324=CARTESIAN_POINT('',(0.,0.,34.5));
#325=CARTESIAN_POINT('',(-1.53,-1.53,37.));
#326=CARTESIAN_POINT('',(7.,0.,12.));
#327=CARTESIAN_POINT('',(7.,7.,12.));
#328=CARTESIAN_POINT('',(4.28626379701574E-16,7.,12.));
#329=CARTESIAN_POINT('',(-7.,7.,12.));
#330=CARTESIAN_POINT('',(-7.,8.57252759403147E-16,12.));
#331=CARTESIAN_POINT('',(6.33333333333333,0.,8.));
#332=CARTESIAN_POINT('',(6.33333333333333,6.33333333333333,8.));
#333=CARTESIAN_POINT('',(3.87804819729995E-16,6.33333333333333,8.));
#334=CARTESIAN_POINT('',(-6.33333333333333,6.33333333333333,8.));
#335=CARTESIAN_POINT('',(-6.33333333333333,7.7560963945999E-16,8.));
#336=CARTESIAN_POINT('',(5.66666666666667,0.,4.));
#337=CARTESIAN_POINT('',(5.66666666666667,5.66666666666667,4.));
#338=CARTESIAN_POINT('',(3.46983259758417E-16,5.66666666666667,4.));
#339=CARTESIAN_POINT('',(-5.66666666666667,5.66666666666667,4.));
#340=CARTESIAN_POINT('',(-5.66666666666667,6.93966519516833E-16,4.));
#341=CARTESIAN_POINT('',(5.,0.,0.));
#342=CARTESIAN_POINT('',(5.,5.,0.));
#343=CARTESIAN_POINT('',(3.06161699786838E-16,5.,0.));
#344=CARTESIAN_POINT('',(-5.,5.,0.));
#345=CARTESIAN_POINT('',(-5.,6.12323399573677E-16,0.));
#346=CARTESIAN_POINT('',(1.74315279842105E-32,1.57009245868378E-16,16.));
#347=CARTESIAN_POINT('',(0.,0.,34.5));
#348=CARTESIAN_POINT('',(7.,0.,12.));
#349=CARTESIAN_POINT('',(5.,0.,0.));
#350=CARTESIAN_POINT('',(2.,0.,32.));
#351=CARTESIAN_POINT('',(1.5,0.,37.));
#352=CARTESIAN_POINT('',(1.5,0.,32.));
#353=CARTESIAN_POINT('',(2.,0.,12.));
#354=CARTESIAN_POINT('',(-7.,8.57252759403147E-16,12.));
#355=CARTESIAN_POINT('',(-5.,6.12323399573677E-16,0.));
#356=CARTESIAN_POINT('',(-2.,2.44929359829471E-16,12.));
#357=CARTESIAN_POINT('',(-2.,2.44929359829471E-16,32.));
#358=CARTESIAN_POINT('',(-1.5,1.83697019872103E-16,32.));
#359=CARTESIAN_POINT('',(-1.5,1.83697019872103E-16,37.));
#360=CARTESIAN_POINT('',(7.,0.,12.));
#361=CARTESIAN_POINT('',(6.33333333333333,0.,8.));
#362=CARTESIAN_POINT('',(5.66666666666667,0.,4.));
#363=CARTESIAN_POINT('',(5.,0.,0.));
#364=CARTESIAN_POINT('',(0.,0.,0.));
#365=CARTESIAN_POINT('',(5.,0.,0.));
#366=CARTESIAN_POINT('',(-5.,6.12323399573677E-16,0.));
#367=CARTESIAN_POINT('',(-3.13767503715789E-31,-6.2803698347351E-16,12.));
#368=CARTESIAN_POINT('',(7.,0.,12.));
#369=CARTESIAN_POINT('',(-7.,-2.11332672635017E-15,12.));
#370=CARTESIAN_POINT('',(1.74315279842105E-32,1.57009245868378E-16,32.));
#371=CARTESIAN_POINT('',(2.,0.,32.));
#372=CARTESIAN_POINT('',(-2.,5.58947851566226E-16,32.));
#373=CARTESIAN_POINT('',(1.5,0.,32.));
#374=CARTESIAN_POINT('',(1.5,0.,37.));
#375=CARTESIAN_POINT('',(0.,0.,37.));
#376=CARTESIAN_POINT('',(1.5,0.,37.));
#377=CARTESIAN_POINT('',(-1.5,1.83697019872103E-16,37.));
#378=CARTESIAN_POINT('',(0.,0.,32.));
#379=CARTESIAN_POINT('',(1.5,0.,32.));
#380=CARTESIAN_POINT('',(-1.5,1.83697019872103E-16,32.));
#381=CARTESIAN_POINT('',(1.57009245868377E-16,-2.46519032881566E-32,12.));
#382=CARTESIAN_POINT('',(2.,0.,12.));
#383=CARTESIAN_POINT('',(-2.,-2.44929359829471E-16,12.));
#384=CARTESIAN_POINT('',(2.,0.,12.));
#385=CARTESIAN_POINT('',(2.,0.,32.));
#386=CARTESIAN_POINT('',(-7.,8.57252759403147E-16,12.));
#387=CARTESIAN_POINT('',(-6.33333333333333,7.7560963945999E-16,8.));
#388=CARTESIAN_POINT('',(-5.66666666666667,6.93966519516833E-16,4.));
#389=CARTESIAN_POINT('',(-5.,6.12323399573677E-16,0.));
#390=CARTESIAN_POINT('',(3.14018491736755E-16,-9.86076131526265E-32,0.));
#391=CARTESIAN_POINT('',(-5.,6.12323399573677E-16,0.));
#392=CARTESIAN_POINT('',(5.,-1.22464679914735E-15,0.));
#393=CARTESIAN_POINT('',(0.,0.,12.));
#394=CARTESIAN_POINT('',(-7.,8.57252759403147E-16,12.));
#395=CARTESIAN_POINT('',(7.,0.,12.));
#396=CARTESIAN_POINT('',(-2.,2.44929359829471E-16,12.));
#397=CARTESIAN_POINT('',(-2.,2.44929359829471E-16,32.));
#398=CARTESIAN_POINT('',(1.57009245868377E-16,-2.46519032881566E-32,32.));
#399=CARTESIAN_POINT('',(-2.,2.44929359829471E-16,32.));
#400=CARTESIAN_POINT('',(2.,-4.89858719658941E-16,32.));
#401=CARTESIAN_POINT('',(2.46519032881566E-32,1.57009245868377E-16,12.));
#402=CARTESIAN_POINT('',(-2.,2.44929359829471E-16,12.));
#403=CARTESIAN_POINT('',(2.,3.14018491736755E-16,12.));
#404=CARTESIAN_POINT('',(-1.5,1.83697019872103E-16,32.));
#405=CARTESIAN_POINT('',(-1.5,1.83697019872103E-16,37.));
#406=CARTESIAN_POINT('',(0.,0.,37.));
#407=CARTESIAN_POINT('',(-1.5,1.83697019872103E-16,37.));
#408=CARTESIAN_POINT('',(1.5,-3.67394039744206E-16,37.));
#409=CARTESIAN_POINT('',(0.,0.,32.));
#410=CARTESIAN_POINT('',(-1.5,1.83697019872103E-16,32.));
#411=CARTESIAN_POINT('',(1.5,-3.67394039744206E-16,32.));
#412=CARTESIAN_POINT('',(0.,0.,0.));
ENDSEC;
END-ISO-10303-21;
